  0
SECTION
  2
HEADER
  9
$ACADVER
  1
AC1015
  9
$ACADMAINTVER
 70
     6
  9
$DWGCODEPAGE
  3
ANSI_1252
  9
$INSBASE
 10
0.0
 20
0.0
 30
0.0
  9
$EXTMIN
 10
0.0
 20
0.0
 30
0.0
  9
$EXTMAX
 10
431.8
 20
279.4
 30
0.0
  9
$LIMMIN
 10
0.0
 20
0.0
  9
$LIMMAX
 10
431.8
 20
279.4
  9
$ORTHOMODE
 70
     0
  9
$REGENMODE
 70
     1
  9
$FILLMODE
 70
     1
  9
$QTEXTMODE
 70
     0
  9
$MIRRTEXT
 70
     1
  9
$LTSCALE
 40
1.0
  9
$ATTMODE
 70
     1
  9
$TEXTSIZE
 40
4.9388888889
  9
$TRACEWID
 40
1.0
  9
$TEXTSTYLE
  7
Standard
  9
$CLAYER
  8
0
  9
$CELTYPE
  6
ByLayer
  9
$CECOLOR
 62
   256
  9
$CELTSCALE
 40
1.0
  9
$DISPSILH
 70
     0
  9
$DIMSCALE
 40
1.0
  9
$DIMASZ
 40
5.1366373698
  9
$DIMEXO
 40
2.0
  9
$DIMDLI
 40
3.75
  9
$DIMRND
 40
0.0
  9
$DIMDLE
 40
0.0
  9
$DIMEXE
 40
2.0
  9
$DIMTP
 40
0.0
  9
$DIMTM
 40
0.0
  9
$DIMTXT
 40
7.0555555556
  9
$DIMCEN
 40
2.5
  9
$DIMTSZ
 40
0.0
  9
$DIMTOL
 70
     0
  9
$DIMLIM
 70
     0
  9
$DIMTIH
 70
     1
  9
$DIMTOH
 70
     1
  9
$DIMSE1
 70
     0
  9
$DIMSE2
 70
     0
  9
$DIMTAD
 70
     1
  9
$DIMZIN
 70
     0
  9
$DIMBLK
  1

  9
$DIMASO
 70
     1
  9
$DIMSHO
 70
     1
  9
$DIMPOST
  1

  9
$DIMAPOST
  1

  9
$DIMALT
 70
     0
  9
$DIMALTD
 70
     3
  9
$DIMALTF
 40
0.0393700787
  9
$DIMLFAC
 40
1.0
  9
$DIMTOFL
 70
     1
  9
$DIMTVP
 40
0.0
  9
$DIMTIX
 70
     0
  9
$DIMSOXD
 70
     0
  9
$DIMSAH
 70
     0
  9
$DIMBLK1
  1

  9
$DIMBLK2
  1

  9
$DIMSTYLE
  2
ISO-25
  9
$DIMCLRD
 70
     0
  9
$DIMCLRE
 70
     0
  9
$DIMCLRT
 70
     0
  9
$DIMTFAC
 40
1.0
  9
$DIMGAP
 40
2.0
  9
$DIMJUST
 70
     0
  9
$DIMSD1
 70
     0
  9
$DIMSD2
 70
     0
  9
$DIMTOLJ
 70
     0
  9
$DIMTZIN
 70
     0
  9
$DIMALTZ
 70
     0
  9
$DIMALTTZ
 70
     0
  9
$DIMUPT
 70
     0
  9
$DIMDEC
 70
     2
  9
$DIMTDEC
 70
     2
  9
$DIMALTU
 70
     2
  9
$DIMALTTD
 70
     3
  9
$DIMTXSTY
  7
Standard
  9
$DIMAUNIT
 70
     0
  9
$DIMADEC
 70
     2
  9
$DIMALTRND
 40
0.0
  9
$DIMAZIN
 70
     0
  9
$DIMDSEP
 70
    44
  9
$DIMATFIT
 70
     3
  9
$DIMFRAC
 70
     0
  9
$DIMLDRBLK
  1

  9
$DIMLUNIT
 70
     2
  9
$DIMLWD
 70
    -2
  9
$DIMLWE
 70
    -2
  9
$DIMTMOVE
 70
     0
  9
$LUNITS
 70
     2
  9
$LUPREC
 70
     2
  9
$SKETCHINC
 40
1.0
  9
$FILLETRAD
 40
10.0
  9
$AUNITS
 70
     0
  9
$AUPREC
 70
     2
  9
$MENU
  1
.
  9
$ELEVATION
 40
0.0
  9
$PELEVATION
 40
0.0
  9
$THICKNESS
 40
0.0
  9
$LIMCHECK
 70
     0
  9
$CHAMFERA
 40
0.0
  9
$CHAMFERB
 40
0.0
  9
$CHAMFERC
 40
0.0
  9
$CHAMFERD
 40
0.0
  9
$SKPOLY
 70
     0
  9
$TDCREATE
 40
2457676.513098183
  9
$TDUCREATE
 40
2457676.42976485
  9
$TDUPDATE
 40
2457676.513098553
  9
$TDUUPDATE
 40
2457676.42976522
  9
$TDINDWG
 40
0.0000000116
  9
$TDUSRTIMER
 40
0.0000000116
  9
$USRTIMER
 70
     1
  9
$ANGBASE
 50
0.0
  9
$ANGDIR
 70
     0
  9
$PDMODE
 70
     0
  9
$PDSIZE
 40
-1.0
  9
$PLINEWID
 40
0.0
  9
$SPLFRAME
 70
     0
  9
$SPLINETYPE
 70
     6
  9
$SPLINESEGS
 70
     8
  9
$HANDSEED
  5
2B9
  9
$SURFTAB1
 70
     6
  9
$SURFTAB2
 70
     6
  9
$SURFTYPE
 70
     6
  9
$SURFU
 70
     6
  9
$SURFV
 70
     6
  9
$UCSBASE
  2

  9
$UCSNAME
  2

  9
$UCSORG
 10
0.0
 20
0.0
 30
0.0
  9
$UCSXDIR
 10
1.0
 20
0.0
 30
0.0
  9
$UCSYDIR
 10
0.0
 20
1.0
 30
0.0
  9
$UCSORTHOREF
  2

  9
$UCSORTHOVIEW
 70
     0
  9
$UCSORGTOP
 10
0.0
 20
0.0
 30
0.0
  9
$UCSORGBOTTOM
 10
0.0
 20
0.0
 30
0.0
  9
$UCSORGLEFT
 10
0.0
 20
0.0
 30
0.0
  9
$UCSORGRIGHT
 10
0.0
 20
0.0
 30
0.0
  9
$UCSORGFRONT
 10
0.0
 20
0.0
 30
0.0
  9
$UCSORGBACK
 10
0.0
 20
0.0
 30
0.0
  9
$PUCSBASE
  2

  9
$PUCSNAME
  2

  9
$PUCSORG
 10
0.0
 20
0.0
 30
0.0
  9
$PUCSXDIR
 10
1.0
 20
0.0
 30
0.0
  9
$PUCSYDIR
 10
0.0
 20
1.0
 30
0.0
  9
$PUCSORTHOREF
  2

  9
$PUCSORTHOVIEW
 70
     0
  9
$PUCSORGTOP
 10
0.0
 20
0.0
 30
0.0
  9
$PUCSORGBOTTOM
 10
0.0
 20
0.0
 30
0.0
  9
$PUCSORGLEFT
 10
0.0
 20
0.0
 30
0.0
  9
$PUCSORGRIGHT
 10
0.0
 20
0.0
 30
0.0
  9
$PUCSORGFRONT
 10
0.0
 20
0.0
 30
0.0
  9
$PUCSORGBACK
 10
0.0
 20
0.0
 30
0.0
  9
$USERI1
 70
     0
  9
$USERI2
 70
     0
  9
$USERI3
 70
     0
  9
$USERI4
 70
     0
  9
$USERI5
 70
     0
  9
$USERR1
 40
0.0
  9
$USERR2
 40
0.0
  9
$USERR3
 40
0.0
  9
$USERR4
 40
0.0
  9
$USERR5
 40
0.0
  9
$WORLDVIEW
 70
     1
  9
$SHADEDGE
 70
     3
  9
$SHADEDIF
 70
    70
  9
$TILEMODE
 70
     1
  9
$MAXACTVP
 70
    64
  9
$PINSBASE
 10
0.0
 20
0.0
 30
0.0
  9
$PLIMCHECK
 70
     0
  9
$PEXTMIN
 10
1.0000000000E+20
 20
1.0000000000E+20
 30
1.0000000000E+20
  9
$PEXTMAX
 10
-1.0000000000E+20
 20
-1.0000000000E+20
 30
-1.0000000000E+20
  9
$PLIMMIN
 10
0.0
 20
0.0
  9
$PLIMMAX
 10
420.0
 20
297.0
  9
$UNITMODE
 70
     0
  9
$VISRETAIN
 70
     1
  9
$PLINEGEN
 70
     0
  9
$PSLTSCALE
 70
     1
  9
$TREEDEPTH
 70
  3020
  9
$CMLSTYLE
  2
Standard
  9
$CMLJUST
 70
     0
  9
$CMLSCALE
 40
20.0
  9
$PROXYGRAPHICS
 70
     1
  9
$MEASUREMENT
 70
     1
  9
$CELWEIGHT
370
    -1
  9
$ENDCAPS
280
     0
  9
$JOINSTYLE
280
     0
  9
$LWDISPLAY
290
     1
  9
$INSUNITS
 70
     4
  9
$HYPERLINKBASE
  1

  9
$STYLESHEET
  1

  9
$XEDIT
290
     1
  9
$CEPSNTYPE
380
     0
  9
$PSTYLEMODE
290
     1
  9
$FINGERPRINTGUID
  2
{1EB39D2F-FE64-4A6C-BEE2-318DEBF81B4C}
  9
$VERSIONGUID
  2
{FAEB1C32-E019-11D5-929B-00C0DF256EC4}
  9
$EXTNAMES
290
     1
  9
$PSVPSCALE
 40
0.0
  9
$OLESTARTUP
290
     0
  0
ENDSEC
  0
SECTION
  2
CLASSES
  0
CLASS
  1
ACDBDICTIONARYWDFLT
  2
AcDbDictionaryWithDefault
  3
ObjectDBX Classes
 90
        0
280
     0
281
     0
  0
CLASS
  1
VISUALSTYLE
  2
AcDbVisualStyle
  3
ObjectDBX Classes
 90
     4095
280
     0
281
     0
  0
CLASS
  1
MATERIAL
  2
AcDbMaterial
  3
ObjectDBX Classes
 90
     1153
280
     0
281
     0
  0
CLASS
  1
SCALE
  2
AcDbScale
  3
ObjectDBX Classes
 90
     1153
280
     0
281
     0
  0
CLASS
  1
TABLESTYLE
  2
AcDbTableStyle
  3
ObjectDBX Classes
 90
     4095
280
     0
281
     0
  0
CLASS
  1
MLEADERSTYLE
  2
AcDbMLeaderStyle
  3
ACDB_MLEADERSTYLE_CLASS
 90
     4095
280
     0
281
     0
  0
CLASS
  1
SUN
  2
AcDbSun
  3
SCENEOE
 90
     1153
280
     0
281
     0
  0
CLASS
  1
ACDBPLACEHOLDER
  2
AcDbPlaceHolder
  3
ObjectDBX Classes
 90
        0
280
     0
281
     0
  0
CLASS
  1
LAYOUT
  2
AcDbLayout
  3
ObjectDBX Classes
 90
        0
280
     0
281
     0
  0
ENDSEC
  0
SECTION
  2
TABLES
  0
TABLE
  2
VPORT
  5
8
330
0
100
AcDbSymbolTable
 70
     1
  0
VPORT
  5
29
330
8
100
AcDbSymbolTableRecord
100
AcDbViewportTableRecord
  2
*Active
 70
     0
 10
0.0
 20
0.0
 11
1.0
 21
1.0
 12
215.9
 22
139.7
 13
0.0
 23
0.0
 14
10.0
 24
10.0
 15
10.0
 25
10.0
 16
0.0
 26
0.0
 36
1.0
 17
0.0
 27
0.0
 37
0.0
 40
279.4
 41
1.5454545455
 42
50.0
 43
0.0
 44
0.0
 50
0.0
 51
0.0
 71
     0
 72
  2000
 73
     1
 74
     3
 75
     0
 76
     0
 77
     0
 78
     0
281
     0
 65
     1
110
0.0
120
0.0
130
0.0
111
1.0
121
0.0
131
0.0
112
0.0
122
1.0
132
0.0
 79
     0
146
0.0
  0
ENDTAB
  0
TABLE
  2
LTYPE
  5
5
330
0
100
AcDbSymbolTable
 70
     6
  0
LTYPE
  5
14
330
5
100
AcDbSymbolTableRecord
100
AcDbLinetypeTableRecord
  2
ByBlock
 70
     0
  3

 72
    65
 73
     0
 40
0.0
  0
LTYPE
  5
15
330
5
100
AcDbSymbolTableRecord
100
AcDbLinetypeTableRecord
  2
ByLayer
 70
     0
  3

 72
    65
 73
     0
 40
0.0
  0
LTYPE
  5
16
330
5
100
AcDbSymbolTableRecord
100
AcDbLinetypeTableRecord
  2
Continuous
 70
     0
  3
Solid line
 72
    65
 73
     0
 40
0.0
  0
LTYPE
  5
6E
330
5
100
AcDbSymbolTableRecord
100
AcDbLinetypeTableRecord
  2
HIDDEN
 70
     0
  3
Hidden __ __ __ __ __ __ __ __ __ __ __ __ __ __
 72
    65
 73
     2
 40
1.905
 49
1.27
 74
     0
 49
-0.635
 74
     0
  0
LTYPE
  5
6F
330
5
100
AcDbSymbolTableRecord
100
AcDbLinetypeTableRecord
  2
PHANTOM
 70
     0
  3
Phantom ______  __  __  ______  __  __  ______
 72
    65
 73
     6
 40
12.7
 49
6.35
 74
     0
 49
-1.27
 74
     0
 49
1.27
 74
     0
 49
-1.27
 74
     0
 49
1.27
 74
     0
 49
-1.27
 74
     0
  0
LTYPE
  5
70
330
5
100
AcDbSymbolTableRecord
100
AcDbLinetypeTableRecord
  2
CENTER
 70
     0
  3
Center ____ _ ____ _ ____ _ ____ _ ____ _ ____
 72
    65
 73
     4
 40
10.16
 49
6.35
 74
     0
 49
-1.27
 74
     0
 49
1.27
 74
     0
 49
-1.27
 74
     0
  0
LTYPE
  5
71
330
5
100
AcDbSymbolTableRecord
100
AcDbLinetypeTableRecord
  2
CENTERX2
 70
     0
  3
Center (2x) ________  __  ________  __  _____
 72
    65
 73
     4
 40
20.32
 49
12.7
 74
     0
 49
-2.54
 74
     0
 49
2.54
 74
     0
 49
-2.54
 74
     0
  0
LTYPE
  5
72
330
5
100
AcDbSymbolTableRecord
100
AcDbLinetypeTableRecord
  2
DOT2
 70
     0
  3
Dot (.5x) ........................................
 72
    65
 73
     2
 40
0.635
 49
0.0
 74
     0
 49
-0.635
 74
     0
  0
ENDTAB
  0
TABLE
  2
LAYER
  5
2
330
0
100
AcDbSymbolTable
 70
     3
  0
LAYER
  5
10
330
2
100
AcDbSymbolTableRecord
100
AcDbLayerTableRecord
  2
0
 70
     0
 62
     7
  6
Continuous
370
    -3
390
F
  0
LAYER
  5
73
330
2
100
AcDbSymbolTableRecord
100
AcDbLayerTableRecord
  2
SLD-0
 70
     0
 62
   179
  6
Continuous
370
    -3
390
F
  0
LAYER
  5
74
330
2
100
AcDbSymbolTableRecord
100
AcDbLayerTableRecord
  2
EBENE_1
 70
     0
 62
   179
  6
Continuous
370
    -3
390
F
  0
ENDTAB
  0
TABLE
  2
STYLE
  5
3
330
0
100
AcDbSymbolTable
 70
     3
  0
STYLE
  5
11
330
3
100
AcDbSymbolTableRecord
100
AcDbTextStyleTableRecord
  2
Standard
 70
     0
 40
0.0
 41
1.0
 50
0.0
 71
     0
 42
4.9388888889
  3
txt
  4

  0
STYLE
  5
96
330
3
100
AcDbSymbolTableRecord
100
AcDbTextStyleTableRecord
  2
SLDTEXTSTYLE0
 70
     0
 40
0.0
 41
0.605
 50
0.0
 71
     0
 42
4.9388888889
  3
TXT
  4

  0
STYLE
  5
16E
330
3
100
AcDbSymbolTableRecord
100
AcDbTextStyleTableRecord
  2
SLDTEXTSTYLE1
 70
     0
 40
0.0
 41
0.75
 50
0.0
 71
     0
 42
4.9388888889
  3
TXT
  4

  0
ENDTAB
  0
TABLE
  2
VIEW
  5
6
330
0
100
AcDbSymbolTable
 70
     0
  0
ENDTAB
  0
TABLE
  2
UCS
  5
7
330
0
100
AcDbSymbolTable
 70
     0
  0
ENDTAB
  0
TABLE
  2
APPID
  5
9
330
0
100
AcDbSymbolTable
 70
     1
  0
APPID
  5
12
330
9
100
AcDbSymbolTableRecord
100
AcDbRegAppTableRecord
  2
ACAD
 70
     0
  0
ENDTAB
  0
TABLE
  2
DIMSTYLE
  5
A
330
0
100
AcDbSymbolTable
 70
     1
100
AcDbDimStyleTable
  0
DIMSTYLE
105
27
330
A
100
AcDbSymbolTableRecord
100
AcDbDimStyleTableRecord
  2
ISO-25
 70
     0
 41
2.5
 42
0.625
 43
3.75
 44
1.25
 73
     0
 74
     0
 77
     1
 78
     8
140
2.5
141
2.5
143
0.0393700787
147
0.625
171
     3
172
     1
178
     0
271
     2
272
     2
274
     3
278
    44
283
     0
284
     8
340
11
  0
ENDTAB
  0
TABLE
  2
BLOCK_RECORD
  5
1
330
0
100
AcDbSymbolTable
 70
    25
  0
BLOCK_RECORD
  5
1F
330
1
100
AcDbSymbolTableRecord
100
AcDbBlockTableRecord
  2
*Model_Space
340
22
  0
BLOCK_RECORD
  5
1B
330
1
100
AcDbSymbolTableRecord
100
AcDbBlockTableRecord
  2
*Paper_Space
340
1E
  0
BLOCK_RECORD
  5
23
330
1
100
AcDbSymbolTableRecord
100
AcDbBlockTableRecord
  2
*Paper_Space0
340
26
  0
BLOCK_RECORD
  5
75
330
1
100
AcDbSymbolTableRecord
100
AcDbBlockTableRecord
  2
Block1
340
0
102
{BLKREFS
331
16D
102
}
  0
BLOCK_RECORD
  5
8C
330
1
100
AcDbSymbolTableRecord
100
AcDbBlockTableRecord
  2
SW_BLOCK_DIMENSION_0
340
0
102
{BLKREFS
331
98
102
}
  0
BLOCK_RECORD
  5
8F
330
1
100
AcDbSymbolTableRecord
100
AcDbBlockTableRecord
  2
_ORIGIN
340
0
102
{BLKREFS
331
94
331
104
102
}
  0
BLOCK_RECORD
  5
99
330
1
100
AcDbSymbolTableRecord
100
AcDbBlockTableRecord
  2
SW_BLOCK_DIMENSION_1
340
0
102
{BLKREFS
331
A0
102
}
  0
BLOCK_RECORD
  5
A1
330
1
100
AcDbSymbolTableRecord
100
AcDbBlockTableRecord
  2
SW_BLOCK_DIMENSION_2
340
0
102
{BLKREFS
331
A8
102
}
  0
BLOCK_RECORD
  5
A9
330
1
100
AcDbSymbolTableRecord
100
AcDbBlockTableRecord
  2
SW_BLOCK_DIMENSION_3
340
0
102
{BLKREFS
331
B0
102
}
  0
BLOCK_RECORD
  5
B1
330
1
100
AcDbSymbolTableRecord
100
AcDbBlockTableRecord
  2
SW_BLOCK_DIMENSION_4
340
0
102
{BLKREFS
331
B8
102
}
  0
BLOCK_RECORD
  5
B9
330
1
100
AcDbSymbolTableRecord
100
AcDbBlockTableRecord
  2
SW_BLOCK_DIMENSION_5
340
0
102
{BLKREFS
331
C0
102
}
  0
BLOCK_RECORD
  5
C1
330
1
100
AcDbSymbolTableRecord
100
AcDbBlockTableRecord
  2
SW_BLOCK_DIMENSION_6
340
0
102
{BLKREFS
331
C8
102
}
  0
BLOCK_RECORD
  5
C9
330
1
100
AcDbSymbolTableRecord
100
AcDbBlockTableRecord
  2
SW_BLOCK_DIMENSION_7
340
0
102
{BLKREFS
331
D0
102
}
  0
BLOCK_RECORD
  5
D1
330
1
100
AcDbSymbolTableRecord
100
AcDbBlockTableRecord
  2
SW_BLOCK_DIMENSION_8
340
0
102
{BLKREFS
331
D8
102
}
  0
BLOCK_RECORD
  5
D9
330
1
100
AcDbSymbolTableRecord
100
AcDbBlockTableRecord
  2
SW_BLOCK_DIMENSION_9
340
0
102
{BLKREFS
331
E0
102
}
  0
BLOCK_RECORD
  5
E1
330
1
100
AcDbSymbolTableRecord
100
AcDbBlockTableRecord
  2
SW_BLOCK_DIMENSION_10
340
0
102
{BLKREFS
331
E8
102
}
  0
BLOCK_RECORD
  5
E9
330
1
100
AcDbSymbolTableRecord
100
AcDbBlockTableRecord
  2
SW_BLOCK_DIMENSION_11
340
0
102
{BLKREFS
331
F0
102
}
  0
BLOCK_RECORD
  5
F1
330
1
100
AcDbSymbolTableRecord
100
AcDbBlockTableRecord
  2
SW_BLOCK_DIMENSION_12
340
0
102
{BLKREFS
331
F8
102
}
  0
BLOCK_RECORD
  5
F9
330
1
100
AcDbSymbolTableRecord
100
AcDbBlockTableRecord
  2
SW_BLOCK_DIMENSION_13
340
0
102
{BLKREFS
331
100
102
}
  0
BLOCK_RECORD
  5
101
330
1
100
AcDbSymbolTableRecord
100
AcDbBlockTableRecord
  2
SW_BLOCK_DIMENSION_14
340
0
102
{BLKREFS
331
110
102
}
  0
BLOCK_RECORD
  5
111
330
1
100
AcDbSymbolTableRecord
100
AcDbBlockTableRecord
  2
SW_BLOCK_DIMENSION_15
340
0
102
{BLKREFS
331
121
102
}
  0
BLOCK_RECORD
  5
122
330
1
100
AcDbSymbolTableRecord
100
AcDbBlockTableRecord
  2
SW_BLOCK_DIMENSION_16
340
0
102
{BLKREFS
331
132
102
}
  0
BLOCK_RECORD
  5
133
330
1
100
AcDbSymbolTableRecord
100
AcDbBlockTableRecord
  2
SW_BLOCK_DIMENSION_17
340
0
102
{BLKREFS
331
143
102
}
  0
BLOCK_RECORD
  5
144
330
1
100
AcDbSymbolTableRecord
100
AcDbBlockTableRecord
  2
SW_BLOCK_DIMENSION_18
340
0
102
{BLKREFS
331
154
102
}
  0
BLOCK_RECORD
  5
155
330
1
100
AcDbSymbolTableRecord
100
AcDbBlockTableRecord
  2
SW_BLOCK_DIMENSION_19
340
0
102
{BLKREFS
331
165
102
}
  0
BLOCK_RECORD
  5
166
330
1
100
AcDbSymbolTableRecord
100
AcDbBlockTableRecord
  2
SW_NOTE_0
340
0
102
{BLKREFS
331
16B
102
}
  0
BLOCK_RECORD
  5
171
330
1
100
AcDbSymbolTableRecord
100
AcDbBlockTableRecord
  2
SW_NOTE_1
340
0
102
{BLKREFS
331
178
102
}
  0
ENDTAB
  0
ENDSEC
  0
SECTION
  2
BLOCKS
  0
BLOCK
  5
20
330
1F
100
AcDbEntity
  8
0
100
AcDbBlockBegin
  2
*Model_Space
 70
     0
 10
0.0
 20
0.0
 30
0.0
  3
*Model_Space
  1

  0
ENDBLK
  5
21
330
1F
100
AcDbEntity
  8
0
100
AcDbBlockEnd
  0
BLOCK
  5
1C
330
1B
100
AcDbEntity
 67
     1
  8
0
100
AcDbBlockBegin
  2
*Paper_Space
 70
     0
 10
0.0
 20
0.0
 30
0.0
  3
*Paper_Space
  1

  0
ENDBLK
  5
1D
330
1B
100
AcDbEntity
 67
     1
  8
0
100
AcDbBlockEnd
  0
BLOCK
  5
24
330
23
100
AcDbEntity
  8
0
100
AcDbBlockBegin
  2
*Paper_Space0
 70
     0
 10
0.0
 20
0.0
 30
0.0
  3
*Paper_Space0
  1

  0
ENDBLK
  5
25
330
23
100
AcDbEntity
  8
0
100
AcDbBlockEnd
  0
BLOCK
  5
76
330
75
100
AcDbEntity
  8
0
100
AcDbBlockBegin
  2
Block1
 70
     0
 10
0.0
 20
0.0
 30
0.0
  3
Block1
  1

  0
LINE
  5
78
330
75
100
AcDbEntity
  8
EBENE_1
100
AcDbLine
 10
363.6834285714
 20
41.3579706949
 30
0.0
 11
388.6834285714
 21
41.3579706949
 31
0.0
  0
LINE
  5
79
330
75
100
AcDbEntity
  8
EBENE_1
100
AcDbLine
 10
374.9034285714
 20
41.3579706949
 30
0.0
 11
374.9034285714
 21
171.3579706949
 31
0.0
  0
LINE
  5
7A
330
75
100
AcDbEntity
  8
EBENE_1
100
AcDbLine
 10
374.9034285714
 20
51.3579706949
 30
0.0
 11
384.9034285714
 21
51.3579706949
 31
0.0
  0
LINE
  5
7B
330
75
100
AcDbEntity
  8
EBENE_1
100
AcDbLine
 10
374.9034285714
 20
61.3579706949
 30
0.0
 11
384.9034285714
 21
61.3579706949
 31
0.0
  0
LINE
  5
7C
330
75
100
AcDbEntity
  8
EBENE_1
100
AcDbLine
 10
374.9034285714
 20
71.3579706949
 30
0.0
 11
384.9034285714
 21
71.3579706949
 31
0.0
  0
LINE
  5
7D
330
75
100
AcDbEntity
  8
EBENE_1
100
AcDbLine
 10
374.9034285714
 20
81.3579706949
 30
0.0
 11
384.9034285714
 21
81.3579706949
 31
0.0
  0
LINE
  5
7E
330
75
100
AcDbEntity
  8
EBENE_1
100
AcDbLine
 10
374.9034285714
 20
91.3579706949
 30
0.0
 11
384.9034285714
 21
91.3579706949
 31
0.0
  0
LINE
  5
7F
330
75
100
AcDbEntity
  8
EBENE_1
100
AcDbLine
 10
374.9034285714
 20
101.3579706949
 30
0.0
 11
384.9034285714
 21
101.3579706949
 31
0.0
  0
LINE
  5
80
330
75
100
AcDbEntity
  8
EBENE_1
100
AcDbLine
 10
374.9034285714
 20
111.3579706949
 30
0.0
 11
384.9034285714
 21
111.3579706949
 31
0.0
  0
LINE
  5
81
330
75
100
AcDbEntity
  8
EBENE_1
100
AcDbLine
 10
374.9034285714
 20
121.3579706949
 30
0.0
 11
384.9034285714
 21
121.3579706949
 31
0.0
  0
LINE
  5
82
330
75
100
AcDbEntity
  8
EBENE_1
100
AcDbLine
 10
374.9034285714
 20
131.3579706949
 30
0.0
 11
384.9034285714
 21
131.3579706949
 31
0.0
  0
LINE
  5
83
330
75
100
AcDbEntity
  8
EBENE_1
100
AcDbLine
 10
374.9034285714
 20
141.3579706949
 30
0.0
 11
384.9034285714
 21
141.3579706949
 31
0.0
  0
LINE
  5
84
330
75
100
AcDbEntity
  8
EBENE_1
100
AcDbLine
 10
374.9034285714
 20
151.3579706949
 30
0.0
 11
384.9034285714
 21
151.3579706949
 31
0.0
  0
LINE
  5
85
330
75
100
AcDbEntity
  8
EBENE_1
100
AcDbLine
 10
374.9034285714
 20
161.3579706949
 30
0.0
 11
384.9034285714
 21
161.3579706949
 31
0.0
  0
LINE
  5
86
330
75
100
AcDbEntity
  8
EBENE_1
100
AcDbLine
 10
374.9034285714
 20
171.3579706949
 30
0.0
 11
384.9034285714
 21
171.3579706949
 31
0.0
  0
LINE
  5
87
330
75
100
AcDbEntity
  8
EBENE_1
100
AcDbLine
 10
374.9034285714
 20
66.7579706949
 30
0.0
 11
362.9034285714
 21
66.7579706949
 31
0.0
  0
LINE
  5
88
330
75
100
AcDbEntity
  8
EBENE_1
100
AcDbLine
 10
374.9034285714
 20
92.1579706949
 30
0.0
 11
362.9034285714
 21
92.1579706949
 31
0.0
  0
LINE
  5
89
330
75
100
AcDbEntity
  8
EBENE_1
100
AcDbLine
 10
374.9034285714
 20
117.5579706949
 30
0.0
 11
362.9034285714
 21
117.5579706949
 31
0.0
  0
LINE
  5
8A
330
75
100
AcDbEntity
  8
EBENE_1
100
AcDbLine
 10
374.9034285714
 20
142.9579706949
 30
0.0
 11
362.9034285714
 21
142.9579706949
 31
0.0
  0
LINE
  5
8B
330
75
100
AcDbEntity
  8
EBENE_1
100
AcDbLine
 10
374.9034285714
 20
168.3579706949
 30
0.0
 11
362.9034285714
 21
168.3579706949
 31
0.0
  0
INSERT
  5
98
330
75
100
AcDbEntity
  8
EBENE_1
100
AcDbBlockReference
  2
SW_BLOCK_DIMENSION_0
 10
397.2096946378
 20
38.9914197296
 30
0.0
  0
INSERT
  5
A0
330
75
100
AcDbEntity
  8
EBENE_1
100
AcDbBlockReference
  2
SW_BLOCK_DIMENSION_1
 10
397.2096946378
 20
48.9914197296
 30
0.0
  0
INSERT
  5
A8
330
75
100
AcDbEntity
  8
EBENE_1
100
AcDbBlockReference
  2
SW_BLOCK_DIMENSION_2
 10
397.2096946378
 20
58.9914197296
 30
0.0
  0
INSERT
  5
B0
330
75
100
AcDbEntity
  8
EBENE_1
100
AcDbBlockReference
  2
SW_BLOCK_DIMENSION_3
 10
397.2096946378
 20
68.9914197296
 30
0.0
  0
INSERT
  5
B8
330
75
100
AcDbEntity
  8
EBENE_1
100
AcDbBlockReference
  2
SW_BLOCK_DIMENSION_4
 10
397.2096946378
 20
78.9914197296
 30
0.0
  0
INSERT
  5
C0
330
75
100
AcDbEntity
  8
EBENE_1
100
AcDbBlockReference
  2
SW_BLOCK_DIMENSION_5
 10
397.2096946378
 20
88.9914197296
 30
0.0
  0
INSERT
  5
C8
330
75
100
AcDbEntity
  8
EBENE_1
100
AcDbBlockReference
  2
SW_BLOCK_DIMENSION_6
 10
397.2096946378
 20
98.9914197296
 30
0.0
  0
INSERT
  5
D0
330
75
100
AcDbEntity
  8
EBENE_1
100
AcDbBlockReference
  2
SW_BLOCK_DIMENSION_7
 10
397.2096946378
 20
108.9914197296
 30
0.0
  0
INSERT
  5
D8
330
75
100
AcDbEntity
  8
EBENE_1
100
AcDbBlockReference
  2
SW_BLOCK_DIMENSION_8
 10
397.2096946378
 20
118.9914197296
 30
0.0
  0
INSERT
  5
E0
330
75
100
AcDbEntity
  8
EBENE_1
100
AcDbBlockReference
  2
SW_BLOCK_DIMENSION_9
 10
397.2096946378
 20
128.9914197296
 30
0.0
  0
INSERT
  5
E8
330
75
100
AcDbEntity
  8
EBENE_1
100
AcDbBlockReference
  2
SW_BLOCK_DIMENSION_10
 10
397.2096946378
 20
138.9914197296
 30
0.0
  0
INSERT
  5
F0
330
75
100
AcDbEntity
  8
EBENE_1
100
AcDbBlockReference
  2
SW_BLOCK_DIMENSION_11
 10
397.2096946378
 20
148.9914197296
 30
0.0
  0
INSERT
  5
F8
330
75
100
AcDbEntity
  8
EBENE_1
100
AcDbBlockReference
  2
SW_BLOCK_DIMENSION_12
 10
397.2096946378
 20
158.9914197296
 30
0.0
  0
INSERT
  5
100
330
75
100
AcDbEntity
  8
EBENE_1
100
AcDbBlockReference
  2
SW_BLOCK_DIMENSION_13
 10
397.2096946378
 20
168.9914197296
 30
0.0
  0
INSERT
  5
110
330
75
100
AcDbEntity
  8
EBENE_1
100
AcDbBlockReference
  2
SW_BLOCK_DIMENSION_14
 10
337.2987953614
 20
36.1691980072
 30
0.0
  0
INSERT
  5
121
330
75
100
AcDbEntity
  8
EBENE_1
100
AcDbBlockReference
  2
SW_BLOCK_DIMENSION_15
 10
337.2987953614
 20
61.5691980072
 30
0.0
  0
INSERT
  5
132
330
75
100
AcDbEntity
  8
EBENE_1
100
AcDbBlockReference
  2
SW_BLOCK_DIMENSION_16
 10
337.2987953614
 20
86.9691980072
 30
0.0
  0
INSERT
  5
143
330
75
100
AcDbEntity
  8
EBENE_1
100
AcDbBlockReference
  2
SW_BLOCK_DIMENSION_17
 10
337.2987953614
 20
112.3691980072
 30
0.0
  0
INSERT
  5
154
330
75
100
AcDbEntity
  8
EBENE_1
100
AcDbBlockReference
  2
SW_BLOCK_DIMENSION_18
 10
336.8284243759
 20
137.7691980072
 30
0.0
  0
INSERT
  5
165
330
75
100
AcDbEntity
  8
EBENE_1
100
AcDbBlockReference
  2
SW_BLOCK_DIMENSION_19
 10
337.2987953614
 20
163.1691980072
 30
0.0
  0
INSERT
  5
16B
330
75
100
AcDbEntity
  8
EBENE_1
 62
   179
100
AcDbBlockReference
  2
SW_NOTE_0
 10
337.5586028241
 20
28.8175207347
 30
0.0
  0
MTEXT
  5
16C
330
75
100
AcDbEntity
  8
EBENE_1
100
AcDbMText
 10
393.160738319
 20
33.5924424874
 30
0.0
 40
3.7041666667
 41
0.0
 71
     1
 72
     1
  1
mm
  7
SLDTEXTSTYLE0
 73
     1
 44
1.0
  0
ENDBLK
  5
77
330
75
100
AcDbEntity
  8
0
100
AcDbBlockEnd
  0
BLOCK
  5
8D
330
8C
100
AcDbEntity
  8
0
100
AcDbBlockBegin
  2
SW_BLOCK_DIMENSION_0
 70
     0
 10
0.0
 20
0.0
 30
0.0
  3
SW_BLOCK_DIMENSION_0
  1

  0
INSERT
  5
94
330
8C
100
AcDbEntity
  8
EBENE_1
 62
     0
100
AcDbBlockReference
  2
_ORIGIN
 10
-1.5805038061
 20
2.3665509652
 30
0.0
 41
0.9483022837
 42
0.9483022837
 50
0.0
  0
LINE
  5
95
330
8C
100
AcDbEntity
  8
EBENE_1
 62
     0
100
AcDbLine
 10
-6.5262660664
 20
2.3665509652
 30
0.0
 11
0.0
 21
2.3665509652
 31
0.0
  0
MTEXT
  5
97
330
8C
100
AcDbEntity
  8
EBENE_1
 62
     0
100
AcDbMText
 10
0.0
 20
4.0927900738
 30
0.0
 40
3.175
 41
0.0
 71
     1
 72
     1
  1
0
  7
SLDTEXTSTYLE0
 73
     1
 44
1.0
  0
ENDBLK
  5
8E
330
8C
100
AcDbEntity
  8
0
100
AcDbBlockEnd
  0
BLOCK
  5
90
330
8F
100
AcDbEntity
  8
0
100
AcDbBlockBegin
  2
_ORIGIN
 70
     0
 10
0.0
 20
0.0
 30
0.0
  3
_ORIGIN
  1

  0
CIRCLE
  5
92
330
8F
100
AcDbEntity
  8
0
  6
ByBlock
 62
     0
370
    -2
100
AcDbCircle
 10
0.0
 20
0.0
 30
0.0
 40
0.5
  0
LINE
  5
93
330
8F
100
AcDbEntity
  8
0
  6
ByBlock
 62
     0
370
    -2
100
AcDbLine
 10
0.0
 20
0.0
 30
0.0
 11
-1.0
 21
0.0
 31
0.0
  0
ENDBLK
  5
91
330
8F
100
AcDbEntity
  8
0
100
AcDbBlockEnd
  0
BLOCK
  5
9A
330
99
100
AcDbEntity
  8
0
100
AcDbBlockBegin
  2
SW_BLOCK_DIMENSION_1
 70
     0
 10
0.0
 20
0.0
 30
0.0
  3
SW_BLOCK_DIMENSION_1
  1

  0
SOLID
  5
9C
330
99
100
AcDbEntity
  8
EBENE_1
 62
     0
100
AcDbTrace
 10
-1.5805038061
 20
2.3665509652
 30
0.0
 11
-2.0546549479
 21
-0.7154314566
 31
0.0
 12
-1.1063526643
 22
-0.7154314566
 32
0.0
 13
-1.1063526643
 23
-0.7154314566
 33
0.0
  0
LINE
  5
9D
330
99
100
AcDbEntity
  8
EBENE_1
 62
     0
100
AcDbLine
 10
-10.3062660664
 20
2.3665509652
 30
0.0
 11
0.0
 21
2.3665509652
 31
0.0
  0
LINE
  5
9E
330
99
100
AcDbEntity
  8
EBENE_1
 62
     0
100
AcDbLine
 10
-1.5805038061
 20
-7.6334490348
 30
0.0
 11
-1.5805038061
 21
2.3665509652
 31
0.0
  0
MTEXT
  5
9F
330
99
100
AcDbEntity
  8
EBENE_1
 62
     0
100
AcDbMText
 10
0.0
 20
4.0927900738
 30
0.0
 40
3.175
 41
0.0
 71
     1
 72
     1
  1
10
  7
SLDTEXTSTYLE0
 73
     1
 44
1.0
  0
ENDBLK
  5
9B
330
99
100
AcDbEntity
  8
0
100
AcDbBlockEnd
  0
BLOCK
  5
A2
330
A1
100
AcDbEntity
  8
0
100
AcDbBlockBegin
  2
SW_BLOCK_DIMENSION_2
 70
     0
 10
0.0
 20
0.0
 30
0.0
  3
SW_BLOCK_DIMENSION_2
  1

  0
SOLID
  5
A4
330
A1
100
AcDbEntity
  8
EBENE_1
 62
     0
100
AcDbTrace
 10
-1.5805038061
 20
2.3665509652
 30
0.0
 11
-2.0546549479
 21
-0.7154314566
 31
0.0
 12
-1.1063526643
 22
-0.7154314566
 32
0.0
 13
-1.1063526643
 23
-0.7154314566
 33
0.0
  0
LINE
  5
A5
330
A1
100
AcDbEntity
  8
EBENE_1
 62
     0
100
AcDbLine
 10
-10.3062660664
 20
2.3665509652
 30
0.0
 11
0.0
 21
2.3665509652
 31
0.0
  0
LINE
  5
A6
330
A1
100
AcDbEntity
  8
EBENE_1
 62
     0
100
AcDbLine
 10
-1.5805038061
 20
-7.6334490348
 30
0.0
 11
-1.5805038061
 21
2.3665509652
 31
0.0
  0
MTEXT
  5
A7
330
A1
100
AcDbEntity
  8
EBENE_1
 62
     0
100
AcDbMText
 10
0.0
 20
4.0927900738
 30
0.0
 40
3.175
 41
0.0
 71
     1
 72
     1
  1
20
  7
SLDTEXTSTYLE0
 73
     1
 44
1.0
  0
ENDBLK
  5
A3
330
A1
100
AcDbEntity
  8
0
100
AcDbBlockEnd
  0
BLOCK
  5
AA
330
A9
100
AcDbEntity
  8
0
100
AcDbBlockBegin
  2
SW_BLOCK_DIMENSION_3
 70
     0
 10
0.0
 20
0.0
 30
0.0
  3
SW_BLOCK_DIMENSION_3
  1

  0
SOLID
  5
AC
330
A9
100
AcDbEntity
  8
EBENE_1
 62
     0
100
AcDbTrace
 10
-1.5805038061
 20
2.3665509652
 30
0.0
 11
-2.0546549479
 21
-0.7154314566
 31
0.0
 12
-1.1063526643
 22
-0.7154314566
 32
0.0
 13
-1.1063526643
 23
-0.7154314566
 33
0.0
  0
LINE
  5
AD
330
A9
100
AcDbEntity
  8
EBENE_1
 62
     0
100
AcDbLine
 10
-10.3062660664
 20
2.3665509652
 30
0.0
 11
0.0
 21
2.3665509652
 31
0.0
  0
LINE
  5
AE
330
A9
100
AcDbEntity
  8
EBENE_1
 62
     0
100
AcDbLine
 10
-1.5805038061
 20
-7.6334490348
 30
0.0
 11
-1.5805038061
 21
2.3665509652
 31
0.0
  0
MTEXT
  5
AF
330
A9
100
AcDbEntity
  8
EBENE_1
 62
     0
100
AcDbMText
 10
0.0
 20
4.0927900738
 30
0.0
 40
3.175
 41
0.0
 71
     1
 72
     1
  1
30
  7
SLDTEXTSTYLE0
 73
     1
 44
1.0
  0
ENDBLK
  5
AB
330
A9
100
AcDbEntity
  8
0
100
AcDbBlockEnd
  0
BLOCK
  5
B2
330
B1
100
AcDbEntity
  8
0
100
AcDbBlockBegin
  2
SW_BLOCK_DIMENSION_4
 70
     0
 10
0.0
 20
0.0
 30
0.0
  3
SW_BLOCK_DIMENSION_4
  1

  0
SOLID
  5
B4
330
B1
100
AcDbEntity
  8
EBENE_1
 62
     0
100
AcDbTrace
 10
-1.5805038061
 20
2.3665509652
 30
0.0
 11
-2.0546549479
 21
-0.7154314566
 31
0.0
 12
-1.1063526643
 22
-0.7154314566
 32
0.0
 13
-1.1063526643
 23
-0.7154314566
 33
0.0
  0
LINE
  5
B5
330
B1
100
AcDbEntity
  8
EBENE_1
 62
     0
100
AcDbLine
 10
-10.3062660664
 20
2.3665509652
 30
0.0
 11
0.0
 21
2.3665509652
 31
0.0
  0
LINE
  5
B6
330
B1
100
AcDbEntity
  8
EBENE_1
 62
     0
100
AcDbLine
 10
-1.5805038061
 20
-7.6334490348
 30
0.0
 11
-1.5805038061
 21
2.3665509652
 31
0.0
  0
MTEXT
  5
B7
330
B1
100
AcDbEntity
  8
EBENE_1
 62
     0
100
AcDbMText
 10
0.0
 20
4.0927900738
 30
0.0
 40
3.175
 41
0.0
 71
     1
 72
     1
  1
40
  7
SLDTEXTSTYLE0
 73
     1
 44
1.0
  0
ENDBLK
  5
B3
330
B1
100
AcDbEntity
  8
0
100
AcDbBlockEnd
  0
BLOCK
  5
BA
330
B9
100
AcDbEntity
  8
0
100
AcDbBlockBegin
  2
SW_BLOCK_DIMENSION_5
 70
     0
 10
0.0
 20
0.0
 30
0.0
  3
SW_BLOCK_DIMENSION_5
  1

  0
SOLID
  5
BC
330
B9
100
AcDbEntity
  8
EBENE_1
 62
     0
100
AcDbTrace
 10
-1.5805038061
 20
2.3665509652
 30
0.0
 11
-2.0546549479
 21
-0.7154314566
 31
0.0
 12
-1.1063526643
 22
-0.7154314566
 32
0.0
 13
-1.1063526643
 23
-0.7154314566
 33
0.0
  0
LINE
  5
BD
330
B9
100
AcDbEntity
  8
EBENE_1
 62
     0
100
AcDbLine
 10
-10.3062660664
 20
2.3665509652
 30
0.0
 11
0.0
 21
2.3665509652
 31
0.0
  0
LINE
  5
BE
330
B9
100
AcDbEntity
  8
EBENE_1
 62
     0
100
AcDbLine
 10
-1.5805038061
 20
-7.6334490348
 30
0.0
 11
-1.5805038061
 21
2.3665509652
 31
0.0
  0
MTEXT
  5
BF
330
B9
100
AcDbEntity
  8
EBENE_1
 62
     0
100
AcDbMText
 10
0.0
 20
4.0927900738
 30
0.0
 40
3.175
 41
0.0
 71
     1
 72
     1
  1
50
  7
SLDTEXTSTYLE0
 73
     1
 44
1.0
  0
ENDBLK
  5
BB
330
B9
100
AcDbEntity
  8
0
100
AcDbBlockEnd
  0
BLOCK
  5
C2
330
C1
100
AcDbEntity
  8
0
100
AcDbBlockBegin
  2
SW_BLOCK_DIMENSION_6
 70
     0
 10
0.0
 20
0.0
 30
0.0
  3
SW_BLOCK_DIMENSION_6
  1

  0
SOLID
  5
C4
330
C1
100
AcDbEntity
  8
EBENE_1
 62
     0
100
AcDbTrace
 10
-1.5805038061
 20
2.3665509652
 30
0.0
 11
-2.0546549479
 21
-0.7154314566
 31
0.0
 12
-1.1063526643
 22
-0.7154314566
 32
0.0
 13
-1.1063526643
 23
-0.7154314566
 33
0.0
  0
LINE
  5
C5
330
C1
100
AcDbEntity
  8
EBENE_1
 62
     0
100
AcDbLine
 10
-10.3062660664
 20
2.3665509652
 30
0.0
 11
0.0
 21
2.3665509652
 31
0.0
  0
LINE
  5
C6
330
C1
100
AcDbEntity
  8
EBENE_1
 62
     0
100
AcDbLine
 10
-1.5805038061
 20
-7.6334490348
 30
0.0
 11
-1.5805038061
 21
2.3665509652
 31
0.0
  0
MTEXT
  5
C7
330
C1
100
AcDbEntity
  8
EBENE_1
 62
     0
100
AcDbMText
 10
0.0
 20
4.0927900738
 30
0.0
 40
3.175
 41
0.0
 71
     1
 72
     1
  1
60
  7
SLDTEXTSTYLE0
 73
     1
 44
1.0
  0
ENDBLK
  5
C3
330
C1
100
AcDbEntity
  8
0
100
AcDbBlockEnd
  0
BLOCK
  5
CA
330
C9
100
AcDbEntity
  8
0
100
AcDbBlockBegin
  2
SW_BLOCK_DIMENSION_7
 70
     0
 10
0.0
 20
0.0
 30
0.0
  3
SW_BLOCK_DIMENSION_7
  1

  0
SOLID
  5
CC
330
C9
100
AcDbEntity
  8
EBENE_1
 62
     0
100
AcDbTrace
 10
-1.5805038061
 20
2.3665509652
 30
0.0
 11
-2.0546549479
 21
-0.7154314566
 31
0.0
 12
-1.1063526643
 22
-0.7154314566
 32
0.0
 13
-1.1063526643
 23
-0.7154314566
 33
0.0
  0
LINE
  5
CD
330
C9
100
AcDbEntity
  8
EBENE_1
 62
     0
100
AcDbLine
 10
-10.3062660664
 20
2.3665509652
 30
0.0
 11
0.0
 21
2.3665509652
 31
0.0
  0
LINE
  5
CE
330
C9
100
AcDbEntity
  8
EBENE_1
 62
     0
100
AcDbLine
 10
-1.5805038061
 20
-7.6334490348
 30
0.0
 11
-1.5805038061
 21
2.3665509652
 31
0.0
  0
MTEXT
  5
CF
330
C9
100
AcDbEntity
  8
EBENE_1
 62
     0
100
AcDbMText
 10
0.0
 20
4.0927900738
 30
0.0
 40
3.175
 41
0.0
 71
     1
 72
     1
  1
70
  7
SLDTEXTSTYLE0
 73
     1
 44
1.0
  0
ENDBLK
  5
CB
330
C9
100
AcDbEntity
  8
0
100
AcDbBlockEnd
  0
BLOCK
  5
D2
330
D1
100
AcDbEntity
  8
0
100
AcDbBlockBegin
  2
SW_BLOCK_DIMENSION_8
 70
     0
 10
0.0
 20
0.0
 30
0.0
  3
SW_BLOCK_DIMENSION_8
  1

  0
SOLID
  5
D4
330
D1
100
AcDbEntity
  8
EBENE_1
 62
     0
100
AcDbTrace
 10
-1.5805038061
 20
2.3665509652
 30
0.0
 11
-2.0546549479
 21
-0.7154314566
 31
0.0
 12
-1.1063526643
 22
-0.7154314566
 32
0.0
 13
-1.1063526643
 23
-0.7154314566
 33
0.0
  0
LINE
  5
D5
330
D1
100
AcDbEntity
  8
EBENE_1
 62
     0
100
AcDbLine
 10
-10.3062660664
 20
2.3665509652
 30
0.0
 11
0.0
 21
2.3665509652
 31
0.0
  0
LINE
  5
D6
330
D1
100
AcDbEntity
  8
EBENE_1
 62
     0
100
AcDbLine
 10
-1.5805038061
 20
-7.6334490348
 30
0.0
 11
-1.5805038061
 21
2.3665509652
 31
0.0
  0
MTEXT
  5
D7
330
D1
100
AcDbEntity
  8
EBENE_1
 62
     0
100
AcDbMText
 10
0.0
 20
4.0927900738
 30
0.0
 40
3.175
 41
0.0
 71
     1
 72
     1
  1
80
  7
SLDTEXTSTYLE0
 73
     1
 44
1.0
  0
ENDBLK
  5
D3
330
D1
100
AcDbEntity
  8
0
100
AcDbBlockEnd
  0
BLOCK
  5
DA
330
D9
100
AcDbEntity
  8
0
100
AcDbBlockBegin
  2
SW_BLOCK_DIMENSION_9
 70
     0
 10
0.0
 20
0.0
 30
0.0
  3
SW_BLOCK_DIMENSION_9
  1

  0
SOLID
  5
DC
330
D9
100
AcDbEntity
  8
EBENE_1
 62
     0
100
AcDbTrace
 10
-1.5805038061
 20
2.3665509652
 30
0.0
 11
-2.0546549479
 21
-0.7154314566
 31
0.0
 12
-1.1063526643
 22
-0.7154314566
 32
0.0
 13
-1.1063526643
 23
-0.7154314566
 33
0.0
  0
LINE
  5
DD
330
D9
100
AcDbEntity
  8
EBENE_1
 62
     0
100
AcDbLine
 10
-10.3062660664
 20
2.3665509652
 30
0.0
 11
0.0
 21
2.3665509652
 31
0.0
  0
LINE
  5
DE
330
D9
100
AcDbEntity
  8
EBENE_1
 62
     0
100
AcDbLine
 10
-1.5805038061
 20
-7.6334490348
 30
0.0
 11
-1.5805038061
 21
2.3665509652
 31
0.0
  0
MTEXT
  5
DF
330
D9
100
AcDbEntity
  8
EBENE_1
 62
     0
100
AcDbMText
 10
0.0
 20
4.0927900738
 30
0.0
 40
3.175
 41
0.0
 71
     1
 72
     1
  1
90
  7
SLDTEXTSTYLE0
 73
     1
 44
1.0
  0
ENDBLK
  5
DB
330
D9
100
AcDbEntity
  8
0
100
AcDbBlockEnd
  0
BLOCK
  5
E2
330
E1
100
AcDbEntity
  8
0
100
AcDbBlockBegin
  2
SW_BLOCK_DIMENSION_10
 70
     0
 10
0.0
 20
0.0
 30
0.0
  3
SW_BLOCK_DIMENSION_10
  1

  0
SOLID
  5
E4
330
E1
100
AcDbEntity
  8
EBENE_1
 62
     0
100
AcDbTrace
 10
-1.5805038061
 20
2.3665509652
 30
0.0
 11
-2.0546549479
 21
-0.7154314566
 31
0.0
 12
-1.1063526643
 22
-0.7154314566
 32
0.0
 13
-1.1063526643
 23
-0.7154314566
 33
0.0
  0
LINE
  5
E5
330
E1
100
AcDbEntity
  8
EBENE_1
 62
     0
100
AcDbLine
 10
-10.3062660664
 20
2.3665509652
 30
0.0
 11
0.0
 21
2.3665509652
 31
0.0
  0
LINE
  5
E6
330
E1
100
AcDbEntity
  8
EBENE_1
 62
     0
100
AcDbLine
 10
-1.5805038061
 20
-7.6334490348
 30
0.0
 11
-1.5805038061
 21
2.3665509652
 31
0.0
  0
MTEXT
  5
E7
330
E1
100
AcDbEntity
  8
EBENE_1
 62
     0
100
AcDbMText
 10
0.0
 20
4.0927900738
 30
0.0
 40
3.175
 41
0.0
 71
     1
 72
     1
  1
100
  7
SLDTEXTSTYLE0
 73
     1
 44
1.0
  0
ENDBLK
  5
E3
330
E1
100
AcDbEntity
  8
0
100
AcDbBlockEnd
  0
BLOCK
  5
EA
330
E9
100
AcDbEntity
  8
0
100
AcDbBlockBegin
  2
SW_BLOCK_DIMENSION_11
 70
     0
 10
0.0
 20
0.0
 30
0.0
  3
SW_BLOCK_DIMENSION_11
  1

  0
SOLID
  5
EC
330
E9
100
AcDbEntity
  8
EBENE_1
 62
     0
100
AcDbTrace
 10
-1.5805038061
 20
2.3665509652
 30
0.0
 11
-2.0546549479
 21
-0.7154314566
 31
0.0
 12
-1.1063526643
 22
-0.7154314566
 32
0.0
 13
-1.1063526643
 23
-0.7154314566
 33
0.0
  0
LINE
  5
ED
330
E9
100
AcDbEntity
  8
EBENE_1
 62
     0
100
AcDbLine
 10
-10.3062660664
 20
2.3665509652
 30
0.0
 11
0.0
 21
2.3665509652
 31
0.0
  0
LINE
  5
EE
330
E9
100
AcDbEntity
  8
EBENE_1
 62
     0
100
AcDbLine
 10
-1.5805038061
 20
-7.6334490348
 30
0.0
 11
-1.5805038061
 21
2.3665509652
 31
0.0
  0
MTEXT
  5
EF
330
E9
100
AcDbEntity
  8
EBENE_1
 62
     0
100
AcDbMText
 10
0.0
 20
4.0927900738
 30
0.0
 40
3.175
 41
0.0
 71
     1
 72
     1
  1
110
  7
SLDTEXTSTYLE0
 73
     1
 44
1.0
  0
ENDBLK
  5
EB
330
E9
100
AcDbEntity
  8
0
100
AcDbBlockEnd
  0
BLOCK
  5
F2
330
F1
100
AcDbEntity
  8
0
100
AcDbBlockBegin
  2
SW_BLOCK_DIMENSION_12
 70
     0
 10
0.0
 20
0.0
 30
0.0
  3
SW_BLOCK_DIMENSION_12
  1

  0
SOLID
  5
F4
330
F1
100
AcDbEntity
  8
EBENE_1
 62
     0
100
AcDbTrace
 10
-1.5805038061
 20
2.3665509652
 30
0.0
 11
-2.0546549479
 21
-0.7154314566
 31
0.0
 12
-1.1063526643
 22
-0.7154314566
 32
0.0
 13
-1.1063526643
 23
-0.7154314566
 33
0.0
  0
LINE
  5
F5
330
F1
100
AcDbEntity
  8
EBENE_1
 62
     0
100
AcDbLine
 10
-10.3062660664
 20
2.3665509652
 30
0.0
 11
0.0
 21
2.3665509652
 31
0.0
  0
LINE
  5
F6
330
F1
100
AcDbEntity
  8
EBENE_1
 62
     0
100
AcDbLine
 10
-1.5805038061
 20
-7.6334490348
 30
0.0
 11
-1.5805038061
 21
2.3665509652
 31
0.0
  0
MTEXT
  5
F7
330
F1
100
AcDbEntity
  8
EBENE_1
 62
     0
100
AcDbMText
 10
0.0
 20
4.0927900738
 30
0.0
 40
3.175
 41
0.0
 71
     1
 72
     1
  1
120
  7
SLDTEXTSTYLE0
 73
     1
 44
1.0
  0
ENDBLK
  5
F3
330
F1
100
AcDbEntity
  8
0
100
AcDbBlockEnd
  0
BLOCK
  5
FA
330
F9
100
AcDbEntity
  8
0
100
AcDbBlockBegin
  2
SW_BLOCK_DIMENSION_13
 70
     0
 10
0.0
 20
0.0
 30
0.0
  3
SW_BLOCK_DIMENSION_13
  1

  0
SOLID
  5
FC
330
F9
100
AcDbEntity
  8
EBENE_1
 62
     0
100
AcDbTrace
 10
-1.5805038061
 20
2.3665509652
 30
0.0
 11
-2.0546549479
 21
-0.7154314566
 31
0.0
 12
-1.1063526643
 22
-0.7154314566
 32
0.0
 13
-1.1063526643
 23
-0.7154314566
 33
0.0
  0
LINE
  5
FD
330
F9
100
AcDbEntity
  8
EBENE_1
 62
     0
100
AcDbLine
 10
-10.3062660664
 20
2.3665509652
 30
0.0
 11
0.0
 21
2.3665509652
 31
0.0
  0
LINE
  5
FE
330
F9
100
AcDbEntity
  8
EBENE_1
 62
     0
100
AcDbLine
 10
-1.5805038061
 20
-7.6334490348
 30
0.0
 11
-1.5805038061
 21
2.3665509652
 31
0.0
  0
MTEXT
  5
FF
330
F9
100
AcDbEntity
  8
EBENE_1
 62
     0
100
AcDbMText
 10
0.0
 20
4.0927900738
 30
0.0
 40
3.175
 41
0.0
 71
     1
 72
     1
  1
130
  7
SLDTEXTSTYLE0
 73
     1
 44
1.0
  0
ENDBLK
  5
FB
330
F9
100
AcDbEntity
  8
0
100
AcDbBlockEnd
  0
BLOCK
  5
102
330
101
100
AcDbEntity
  8
0
100
AcDbBlockBegin
  2
SW_BLOCK_DIMENSION_14
 70
     0
 10
0.0
 20
0.0
 30
0.0
  3
SW_BLOCK_DIMENSION_14
  1

  0
INSERT
  5
104
330
101
100
AcDbEntity
  8
EBENE_1
 62
     0
100
AcDbBlockReference
  2
_ORIGIN
 10
16.3971707594
 20
5.1887726877
 30
0.0
 41
0.9483022837
 42
0.9483022837
 50
0.0
  0
LINE
  5
105
330
101
100
AcDbEntity
  8
EBENE_1
 62
     0
100
AcDbLine
 10
3.2925925916
 20
9.671990294
 30
0.0
 11
2.2342592711
 21
9.671990294
 31
0.0
  0
LINE
  5
106
330
101
100
AcDbEntity
  8
EBENE_1
 62
     0
100
AcDbLine
 10
2.2342592711
 20
9.671990294
 30
0.0
 11
2.2342592711
 21
4.9388883635
 31
0.0
  0
LINE
  5
107
330
101
100
AcDbEntity
  8
EBENE_1
 62
     0
100
AcDbLine
 10
2.2342592711
 20
4.9388883635
 30
0.0
 11
3.2925925916
 21
4.9388883635
 31
0.0
  0
LINE
  5
108
330
101
100
AcDbEntity
  8
EBENE_1
 62
     0
100
AcDbLine
 10
11.5240741288
 20
9.671990294
 30
0.0
 11
12.5824074494
 21
9.671990294
 31
0.0
  0
LINE
  5
109
330
101
100
AcDbEntity
  8
EBENE_1
 62
     0
100
AcDbLine
 10
12.5824074494
 20
9.671990294
 30
0.0
 11
12.5824074494
 21
4.9388883635
 31
0.0
  0
LINE
  5
10A
330
101
100
AcDbEntity
  8
EBENE_1
 62
     0
100
AcDbLine
 10
12.5824074494
 20
4.9388883635
 30
0.0
 11
11.5240741288
 21
4.9388883635
 31
0.0
  0
LINE
  5
10B
330
101
100
AcDbEntity
  8
EBENE_1
 62
     0
100
AcDbLine
 10
24.38463321
 20
5.1887726877
 30
0.0
 11
14.8166669533
 21
5.1887726877
 31
0.0
  0
MTEXT
  5
10C
330
101
100
AcDbEntity
  8
EBENE_1
 62
     0
100
AcDbMText
 10
1.190625
 20
4.0927900738
 30
0.0
 40
3.175
 41
0.0
 71
     1
 72
     1
  1

  7
SLDTEXTSTYLE0
 73
     1
 44
1.0
  0
MTEXT
  5
10D
330
101
100
AcDbEntity
  8
EBENE_1
 62
     0
100
AcDbMText
 10
3.2925925916
 20
9.0316784373
 30
0.0
 40
3.175
 41
0.0
 71
     1
 72
     1
  1
0,00
  7
SLDTEXTSTYLE0
 73
     1
 44
1.0
  0
MTEXT
  5
10E
330
101
100
AcDbEntity
  8
EBENE_1
 62
     0
100
AcDbMText
 10
6.2324074097
 20
4.0927898409
 30
0.0
 40
3.175
 41
0.0
 71
     1
 72
     1
  1
0
  7
SLDTEXTSTYLE0
 73
     1
 44
1.0
  0
MTEXT
  5
10F
330
101
100
AcDbEntity
  8
EBENE_1
 62
     0
100
AcDbMText
 10
14.8313658863
 20
4.0927900738
 30
0.0
 40
3.175
 41
0.0
 71
     1
 72
     1
  1

  7
SLDTEXTSTYLE0
 73
     1
 44
1.0
  0
ENDBLK
  5
103
330
101
100
AcDbEntity
  8
0
100
AcDbBlockEnd
  0
BLOCK
  5
112
330
111
100
AcDbEntity
  8
0
100
AcDbBlockBegin
  2
SW_BLOCK_DIMENSION_15
 70
     0
 10
0.0
 20
0.0
 30
0.0
  3
SW_BLOCK_DIMENSION_15
  1

  0
SOLID
  5
114
330
111
100
AcDbEntity
  8
EBENE_1
 62
     0
100
AcDbTrace
 10
16.3971707594
 20
5.1887726877
 30
0.0
 11
15.9230196175
 21
2.1067902658
 31
0.0
 12
16.8713219012
 22
2.1067902658
 32
0.0
 13
16.8713219012
 23
2.1067902658
 33
0.0
  0
LINE
  5
115
330
111
100
AcDbEntity
  8
EBENE_1
 62
     0
100
AcDbLine
 10
3.2925925916
 20
9.671990294
 30
0.0
 11
2.2342592711
 21
9.671990294
 31
0.0
  0
LINE
  5
116
330
111
100
AcDbEntity
  8
EBENE_1
 62
     0
100
AcDbLine
 10
2.2342592711
 20
9.671990294
 30
0.0
 11
2.2342592711
 21
4.9388883635
 31
0.0
  0
LINE
  5
117
330
111
100
AcDbEntity
  8
EBENE_1
 62
     0
100
AcDbLine
 10
2.2342592711
 20
4.9388883635
 30
0.0
 11
3.2925925916
 21
4.9388883635
 31
0.0
  0
LINE
  5
118
330
111
100
AcDbEntity
  8
EBENE_1
 62
     0
100
AcDbLine
 10
11.5240741288
 20
9.671990294
 30
0.0
 11
12.5824074494
 21
9.671990294
 31
0.0
  0
LINE
  5
119
330
111
100
AcDbEntity
  8
EBENE_1
 62
     0
100
AcDbLine
 10
12.5824074494
 20
9.671990294
 30
0.0
 11
12.5824074494
 21
4.9388883635
 31
0.0
  0
LINE
  5
11A
330
111
100
AcDbEntity
  8
EBENE_1
 62
     0
100
AcDbLine
 10
12.5824074494
 20
4.9388883635
 30
0.0
 11
11.5240741288
 21
4.9388883635
 31
0.0
  0
LINE
  5
11B
330
111
100
AcDbEntity
  8
EBENE_1
 62
     0
100
AcDbLine
 10
23.60463321
 20
5.1887726877
 30
0.0
 11
14.8166669533
 21
5.1887726877
 31
0.0
  0
LINE
  5
11C
330
111
100
AcDbEntity
  8
EBENE_1
 62
     0
100
AcDbLine
 10
16.3971707594
 20
-20.2112273123
 30
0.0
 11
16.3971707594
 21
5.1887726877
 31
0.0
  0
MTEXT
  5
11D
330
111
100
AcDbEntity
  8
EBENE_1
 62
     0
100
AcDbMText
 10
1.190625
 20
4.0927900738
 30
0.0
 40
3.175
 41
0.0
 71
     1
 72
     1
  1

  7
SLDTEXTSTYLE0
 73
     1
 44
1.0
  0
MTEXT
  5
11E
330
111
100
AcDbEntity
  8
EBENE_1
 62
     0
100
AcDbMText
 10
3.2925925916
 20
9.0316784373
 30
0.0
 40
3.175
 41
0.0
 71
     1
 72
     1
  1
1,00
  7
SLDTEXTSTYLE0
 73
     1
 44
1.0
  0
MTEXT
  5
11F
330
111
100
AcDbEntity
  8
EBENE_1
 62
     0
100
AcDbMText
 10
2.1166665247
 20
4.0927898409
 30
0.0
 40
3.175
 41
0.0
 71
     1
 72
     1
  1
25,40
  7
SLDTEXTSTYLE0
 73
     1
 44
1.0
  0
MTEXT
  5
120
330
111
100
AcDbEntity
  8
EBENE_1
 62
     0
100
AcDbMText
 10
14.8313658863
 20
4.0927900738
 30
0.0
 40
3.175
 41
0.0
 71
     1
 72
     1
  1

  7
SLDTEXTSTYLE0
 73
     1
 44
1.0
  0
ENDBLK
  5
113
330
111
100
AcDbEntity
  8
0
100
AcDbBlockEnd
  0
BLOCK
  5
123
330
122
100
AcDbEntity
  8
0
100
AcDbBlockBegin
  2
SW_BLOCK_DIMENSION_16
 70
     0
 10
0.0
 20
0.0
 30
0.0
  3
SW_BLOCK_DIMENSION_16
  1

  0
SOLID
  5
125
330
122
100
AcDbEntity
  8
EBENE_1
 62
     0
100
AcDbTrace
 10
16.3971707594
 20
5.1887726877
 30
0.0
 11
15.9230196175
 21
2.1067902658
 31
0.0
 12
16.8713219012
 22
2.1067902658
 32
0.0
 13
16.8713219012
 23
2.1067902658
 33
0.0
  0
LINE
  5
126
330
122
100
AcDbEntity
  8
EBENE_1
 62
     0
100
AcDbLine
 10
3.2925925916
 20
9.671990294
 30
0.0
 11
2.2342592711
 21
9.671990294
 31
0.0
  0
LINE
  5
127
330
122
100
AcDbEntity
  8
EBENE_1
 62
     0
100
AcDbLine
 10
2.2342592711
 20
9.671990294
 30
0.0
 11
2.2342592711
 21
4.9388883635
 31
0.0
  0
LINE
  5
128
330
122
100
AcDbEntity
  8
EBENE_1
 62
     0
100
AcDbLine
 10
2.2342592711
 20
4.9388883635
 30
0.0
 11
3.2925925916
 21
4.9388883635
 31
0.0
  0
LINE
  5
129
330
122
100
AcDbEntity
  8
EBENE_1
 62
     0
100
AcDbLine
 10
11.5240741288
 20
9.671990294
 30
0.0
 11
12.5824074494
 21
9.671990294
 31
0.0
  0
LINE
  5
12A
330
122
100
AcDbEntity
  8
EBENE_1
 62
     0
100
AcDbLine
 10
12.5824074494
 20
9.671990294
 30
0.0
 11
12.5824074494
 21
4.9388883635
 31
0.0
  0
LINE
  5
12B
330
122
100
AcDbEntity
  8
EBENE_1
 62
     0
100
AcDbLine
 10
12.5824074494
 20
4.9388883635
 30
0.0
 11
11.5240741288
 21
4.9388883635
 31
0.0
  0
LINE
  5
12C
330
122
100
AcDbEntity
  8
EBENE_1
 62
     0
100
AcDbLine
 10
23.60463321
 20
5.1887726877
 30
0.0
 11
14.8166669533
 21
5.1887726877
 31
0.0
  0
LINE
  5
12D
330
122
100
AcDbEntity
  8
EBENE_1
 62
     0
100
AcDbLine
 10
16.3971707594
 20
-20.2112273123
 30
0.0
 11
16.3971707594
 21
5.1887726877
 31
0.0
  0
MTEXT
  5
12E
330
122
100
AcDbEntity
  8
EBENE_1
 62
     0
100
AcDbMText
 10
1.190625
 20
4.0927900738
 30
0.0
 40
3.175
 41
0.0
 71
     1
 72
     1
  1

  7
SLDTEXTSTYLE0
 73
     1
 44
1.0
  0
MTEXT
  5
12F
330
122
100
AcDbEntity
  8
EBENE_1
 62
     0
100
AcDbMText
 10
3.2925925916
 20
9.0316784373
 30
0.0
 40
3.175
 41
0.0
 71
     1
 72
     1
  1
2,00
  7
SLDTEXTSTYLE0
 73
     1
 44
1.0
  0
MTEXT
  5
130
330
122
100
AcDbEntity
  8
EBENE_1
 62
     0
100
AcDbMText
 10
2.1166665247
 20
4.0927898409
 30
0.0
 40
3.175
 41
0.0
 71
     1
 72
     1
  1
50,80
  7
SLDTEXTSTYLE0
 73
     1
 44
1.0
  0
MTEXT
  5
131
330
122
100
AcDbEntity
  8
EBENE_1
 62
     0
100
AcDbMText
 10
14.8313658863
 20
4.0927900738
 30
0.0
 40
3.175
 41
0.0
 71
     1
 72
     1
  1

  7
SLDTEXTSTYLE0
 73
     1
 44
1.0
  0
ENDBLK
  5
124
330
122
100
AcDbEntity
  8
0
100
AcDbBlockEnd
  0
BLOCK
  5
134
330
133
100
AcDbEntity
  8
0
100
AcDbBlockBegin
  2
SW_BLOCK_DIMENSION_17
 70
     0
 10
0.0
 20
0.0
 30
0.0
  3
SW_BLOCK_DIMENSION_17
  1

  0
SOLID
  5
136
330
133
100
AcDbEntity
  8
EBENE_1
 62
     0
100
AcDbTrace
 10
16.3971707594
 20
5.1887726877
 30
0.0
 11
15.9230196175
 21
2.1067902658
 31
0.0
 12
16.8713219012
 22
2.1067902658
 32
0.0
 13
16.8713219012
 23
2.1067902658
 33
0.0
  0
LINE
  5
137
330
133
100
AcDbEntity
  8
EBENE_1
 62
     0
100
AcDbLine
 10
3.2925925916
 20
9.671990294
 30
0.0
 11
2.2342592711
 21
9.671990294
 31
0.0
  0
LINE
  5
138
330
133
100
AcDbEntity
  8
EBENE_1
 62
     0
100
AcDbLine
 10
2.2342592711
 20
9.671990294
 30
0.0
 11
2.2342592711
 21
4.9388883635
 31
0.0
  0
LINE
  5
139
330
133
100
AcDbEntity
  8
EBENE_1
 62
     0
100
AcDbLine
 10
2.2342592711
 20
4.9388883635
 30
0.0
 11
3.2925925916
 21
4.9388883635
 31
0.0
  0
LINE
  5
13A
330
133
100
AcDbEntity
  8
EBENE_1
 62
     0
100
AcDbLine
 10
11.5240741288
 20
9.671990294
 30
0.0
 11
12.5824074494
 21
9.671990294
 31
0.0
  0
LINE
  5
13B
330
133
100
AcDbEntity
  8
EBENE_1
 62
     0
100
AcDbLine
 10
12.5824074494
 20
9.671990294
 30
0.0
 11
12.5824074494
 21
4.9388883635
 31
0.0
  0
LINE
  5
13C
330
133
100
AcDbEntity
  8
EBENE_1
 62
     0
100
AcDbLine
 10
12.5824074494
 20
4.9388883635
 30
0.0
 11
11.5240741288
 21
4.9388883635
 31
0.0
  0
LINE
  5
13D
330
133
100
AcDbEntity
  8
EBENE_1
 62
     0
100
AcDbLine
 10
23.60463321
 20
5.1887726877
 30
0.0
 11
14.8166669533
 21
5.1887726877
 31
0.0
  0
LINE
  5
13E
330
133
100
AcDbEntity
  8
EBENE_1
 62
     0
100
AcDbLine
 10
16.3971707594
 20
-20.2112273123
 30
0.0
 11
16.3971707594
 21
5.1887726877
 31
0.0
  0
MTEXT
  5
13F
330
133
100
AcDbEntity
  8
EBENE_1
 62
     0
100
AcDbMText
 10
1.190625
 20
4.0927900738
 30
0.0
 40
3.175
 41
0.0
 71
     1
 72
     1
  1

  7
SLDTEXTSTYLE0
 73
     1
 44
1.0
  0
MTEXT
  5
140
330
133
100
AcDbEntity
  8
EBENE_1
 62
     0
100
AcDbMText
 10
3.2925925916
 20
9.0316784373
 30
0.0
 40
3.175
 41
0.0
 71
     1
 72
     1
  1
3,00
  7
SLDTEXTSTYLE0
 73
     1
 44
1.0
  0
MTEXT
  5
141
330
133
100
AcDbEntity
  8
EBENE_1
 62
     0
100
AcDbMText
 10
2.1166665247
 20
4.0927898409
 30
0.0
 40
3.175
 41
0.0
 71
     1
 72
     1
  1
76,20
  7
SLDTEXTSTYLE0
 73
     1
 44
1.0
  0
MTEXT
  5
142
330
133
100
AcDbEntity
  8
EBENE_1
 62
     0
100
AcDbMText
 10
14.8313658863
 20
4.0927900738
 30
0.0
 40
3.175
 41
0.0
 71
     1
 72
     1
  1

  7
SLDTEXTSTYLE0
 73
     1
 44
1.0
  0
ENDBLK
  5
135
330
133
100
AcDbEntity
  8
0
100
AcDbBlockEnd
  0
BLOCK
  5
145
330
144
100
AcDbEntity
  8
0
100
AcDbBlockBegin
  2
SW_BLOCK_DIMENSION_18
 70
     0
 10
0.0
 20
0.0
 30
0.0
  3
SW_BLOCK_DIMENSION_18
  1

  0
SOLID
  5
147
330
144
100
AcDbEntity
  8
EBENE_1
 62
     0
100
AcDbTrace
 10
16.8675417449
 20
5.1887726877
 30
0.0
 11
16.3933906031
 21
2.1067902658
 31
0.0
 12
17.3416928867
 22
2.1067902658
 32
0.0
 13
17.3416928867
 23
2.1067902658
 33
0.0
  0
LINE
  5
148
330
144
100
AcDbEntity
  8
EBENE_1
 62
     0
100
AcDbLine
 10
3.5277780844
 20
9.671990294
 30
0.0
 11
2.4694447638
 21
9.671990294
 31
0.0
  0
LINE
  5
149
330
144
100
AcDbEntity
  8
EBENE_1
 62
     0
100
AcDbLine
 10
2.4694447638
 20
9.671990294
 30
0.0
 11
2.4694447638
 21
4.9388883635
 31
0.0
  0
LINE
  5
14A
330
144
100
AcDbEntity
  8
EBENE_1
 62
     0
100
AcDbLine
 10
2.4694447638
 20
4.9388883635
 30
0.0
 11
3.5277780844
 21
4.9388883635
 31
0.0
  0
LINE
  5
14B
330
144
100
AcDbEntity
  8
EBENE_1
 62
     0
100
AcDbLine
 10
11.7592596216
 20
9.671990294
 30
0.0
 11
12.8175929422
 21
9.671990294
 31
0.0
  0
LINE
  5
14C
330
144
100
AcDbEntity
  8
EBENE_1
 62
     0
100
AcDbLine
 10
12.8175929422
 20
9.671990294
 30
0.0
 11
12.8175929422
 21
4.9388883635
 31
0.0
  0
LINE
  5
14D
330
144
100
AcDbEntity
  8
EBENE_1
 62
     0
100
AcDbLine
 10
12.8175929422
 20
4.9388883635
 30
0.0
 11
11.7592596216
 21
4.9388883635
 31
0.0
  0
LINE
  5
14E
330
144
100
AcDbEntity
  8
EBENE_1
 62
     0
100
AcDbLine
 10
24.0750041956
 20
5.1887726877
 30
0.0
 11
15.2870379388
 21
5.1887726877
 31
0.0
  0
LINE
  5
14F
330
144
100
AcDbEntity
  8
EBENE_1
 62
     0
100
AcDbLine
 10
16.8675417449
 20
-20.2112273123
 30
0.0
 11
16.8675417449
 21
5.1887726877
 31
0.0
  0
MTEXT
  5
150
330
144
100
AcDbEntity
  8
EBENE_1
 62
     0
100
AcDbMText
 10
1.190625
 20
4.0927900738
 30
0.0
 40
3.175
 41
0.0
 71
     1
 72
     1
  1

  7
SLDTEXTSTYLE0
 73
     1
 44
1.0
  0
MTEXT
  5
151
330
144
100
AcDbEntity
  8
EBENE_1
 62
     0
100
AcDbMText
 10
3.5277780844
 20
9.0316784373
 30
0.0
 40
3.175
 41
0.0
 71
     1
 72
     1
  1
4,00
  7
SLDTEXTSTYLE0
 73
     1
 44
1.0
  0
MTEXT
  5
152
330
144
100
AcDbEntity
  8
EBENE_1
 62
     0
100
AcDbMText
 10
1.1759259505
 20
4.0927898409
 30
0.0
 40
3.175
 41
0.0
 71
     1
 72
     1
  1
101,60
  7
SLDTEXTSTYLE0
 73
     1
 44
1.0
  0
MTEXT
  5
153
330
144
100
AcDbEntity
  8
EBENE_1
 62
     0
100
AcDbMText
 10
15.3017368719
 20
4.0927900738
 30
0.0
 40
3.175
 41
0.0
 71
     1
 72
     1
  1

  7
SLDTEXTSTYLE0
 73
     1
 44
1.0
  0
ENDBLK
  5
146
330
144
100
AcDbEntity
  8
0
100
AcDbBlockEnd
  0
BLOCK
  5
156
330
155
100
AcDbEntity
  8
0
100
AcDbBlockBegin
  2
SW_BLOCK_DIMENSION_19
 70
     0
 10
0.0
 20
0.0
 30
0.0
  3
SW_BLOCK_DIMENSION_19
  1

  0
SOLID
  5
158
330
155
100
AcDbEntity
  8
EBENE_1
 62
     0
100
AcDbTrace
 10
16.3971707594
 20
5.1887726877
 30
0.0
 11
15.9230196175
 21
2.1067902658
 31
0.0
 12
16.8713219012
 22
2.1067902658
 32
0.0
 13
16.8713219012
 23
2.1067902658
 33
0.0
  0
LINE
  5
159
330
155
100
AcDbEntity
  8
EBENE_1
 62
     0
100
AcDbLine
 10
3.2925925916
 20
9.671990294
 30
0.0
 11
2.2342592711
 21
9.671990294
 31
0.0
  0
LINE
  5
15A
330
155
100
AcDbEntity
  8
EBENE_1
 62
     0
100
AcDbLine
 10
2.2342592711
 20
9.671990294
 30
0.0
 11
2.2342592711
 21
4.9388883635
 31
0.0
  0
LINE
  5
15B
330
155
100
AcDbEntity
  8
EBENE_1
 62
     0
100
AcDbLine
 10
2.2342592711
 20
4.9388883635
 30
0.0
 11
3.2925925916
 21
4.9388883635
 31
0.0
  0
LINE
  5
15C
330
155
100
AcDbEntity
  8
EBENE_1
 62
     0
100
AcDbLine
 10
11.5240741288
 20
9.671990294
 30
0.0
 11
12.5824074494
 21
9.671990294
 31
0.0
  0
LINE
  5
15D
330
155
100
AcDbEntity
  8
EBENE_1
 62
     0
100
AcDbLine
 10
12.5824074494
 20
9.671990294
 30
0.0
 11
12.5824074494
 21
4.9388883635
 31
0.0
  0
LINE
  5
15E
330
155
100
AcDbEntity
  8
EBENE_1
 62
     0
100
AcDbLine
 10
12.5824074494
 20
4.9388883635
 30
0.0
 11
11.5240741288
 21
4.9388883635
 31
0.0
  0
LINE
  5
15F
330
155
100
AcDbEntity
  8
EBENE_1
 62
     0
100
AcDbLine
 10
23.60463321
 20
5.1887726877
 30
0.0
 11
14.8166669533
 21
5.1887726877
 31
0.0
  0
LINE
  5
160
330
155
100
AcDbEntity
  8
EBENE_1
 62
     0
100
AcDbLine
 10
16.3971707594
 20
-20.2112273123
 30
0.0
 11
16.3971707594
 21
5.1887726877
 31
0.0
  0
MTEXT
  5
161
330
155
100
AcDbEntity
  8
EBENE_1
 62
     0
100
AcDbMText
 10
1.190625
 20
4.0927900738
 30
0.0
 40
3.175
 41
0.0
 71
     1
 72
     1
  1

  7
SLDTEXTSTYLE0
 73
     1
 44
1.0
  0
MTEXT
  5
162
330
155
100
AcDbEntity
  8
EBENE_1
 62
     0
100
AcDbMText
 10
3.2925925916
 20
9.0316784373
 30
0.0
 40
3.175
 41
0.0
 71
     1
 72
     1
  1
5,00
  7
SLDTEXTSTYLE0
 73
     1
 44
1.0
  0
MTEXT
  5
163
330
155
100
AcDbEntity
  8
EBENE_1
 62
     0
100
AcDbMText
 10
3.8805556251
 20
4.0927898409
 30
0.0
 40
3.175
 41
0.0
 71
     1
 72
     1
  1
127
  7
SLDTEXTSTYLE0
 73
     1
 44
1.0
  0
MTEXT
  5
164
330
155
100
AcDbEntity
  8
EBENE_1
 62
     0
100
AcDbMText
 10
14.8313658863
 20
4.0927900738
 30
0.0
 40
3.175
 41
0.0
 71
     1
 72
     1
  1

  7
SLDTEXTSTYLE0
 73
     1
 44
1.0
  0
ENDBLK
  5
157
330
155
100
AcDbEntity
  8
0
100
AcDbBlockEnd
  0
BLOCK
  5
167
330
166
100
AcDbEntity
  8
0
100
AcDbBlockBegin
  2
SW_NOTE_0
 70
     0
 10
0.0
 20
0.0
 30
0.0
  3
SW_NOTE_0
  1

  0
MTEXT
  5
169
330
166
100
AcDbEntity
  8
EBENE_1
 62
     0
100
AcDbMText
 10
6.7138020833
 20
4.7749217527
 30
0.0
 40
3.7041666667
 41
0.0
 71
     2
 72
     1
  1
(Inch)
  7
SLDTEXTSTYLE0
 73
     1
 44
1.0
  0
MTEXT
  5
16A
330
166
100
AcDbEntity
  8
EBENE_1
 62
     0
100
AcDbMText
 10
6.7309508326
 20
-1.1639672404
 30
0.0
 40
3.7041666667
 41
0.0
 71
     2
 72
     1
  1
mm
  7
SLDTEXTSTYLE0
 73
     1
 44
1.0
  0
ENDBLK
  5
168
330
166
100
AcDbEntity
  8
0
100
AcDbBlockEnd
  0
BLOCK
  5
172
330
171
100
AcDbEntity
  8
0
100
AcDbBlockBegin
  2
SW_NOTE_1
 70
     0
 10
0.0
 20
0.0
 30
0.0
  3
SW_NOTE_1
  1

  0
MTEXT
  5
174
330
171
100
AcDbEntity
  8
0
  6
Continuous
 62
     0
370
     0
100
AcDbMText
 10
19.893359375
 20
4.0927900738
 30
0.0
 40
3.175
 41
0.0
 71
     2
 72
     1
  1
ABP-Beyerle GmbH
  7
SLDTEXTSTYLE0
 73
     1
 44
1.0
  0
MTEXT
  5
175
330
171
100
AcDbEntity
  8
0
  6
Continuous
 62
     0
370
     0
100
AcDbMText
 10
20.6558884293
 20
-0.1405432084
 30
0.0
 40
3.175
 41
0.0
 71
     2
 72
     1
  1
Im Schollengarten 24b, 76646 Bruchsal
  7
SLDTEXTSTYLE0
 73
     1
 44
1.0
  0
MTEXT
  5
176
330
171
100
AcDbEntity
  8
0
  6
Continuous
 62
     0
370
     0
100
AcDbMText
 10
20.7863491923
 20
-4.3738764906
 30
0.0
 40
3.175
 41
0.0
 71
     2
 72
     1
  1
Tel. +49 (0)7251-9127-0, Fax. +49 (0)7251-9127-29
  7
SLDTEXTSTYLE0
 73
     1
 44
1.0
  0
MTEXT
  5
177
330
171
100
AcDbEntity
  8
0
  6
Continuous
 62
     0
370
     0
100
AcDbMText
 10
20.8392552227
 20
-8.6072097727
 30
0.0
 40
3.175
 41
0.0
 71
     2
 72
     1
  1
info@abp-beyerle.de, www.abp-beyerle.de
  7
SLDTEXTSTYLE0
 73
     1
 44
1.0
  0
ENDBLK
  5
173
330
171
100
AcDbEntity
  8
0
100
AcDbBlockEnd
  0
ENDSEC
  0
SECTION
  2
ENTITIES
  0
INSERT
  5
16D
330
1F
100
AcDbEntity
  8
EBENE_1
100
AcDbBlockReference
  2
Block1
 10
19.561342692
 20
-6.9223244521
 30
0.0
  0
MTEXT
  5
16F
330
1F
100
AcDbEntity
  8
0
  6
Continuous
 62
     7
370
     0
100
AcDbMText
 10
402.5
 20
14.7189135832
 30
0.0
 40
6.35
 41
0.0
 71
     1
 72
     1
  1
1:1
  7
SLDTEXTSTYLE1
 73
     1
 44
1.0
  0
MTEXT
  5
170
330
1F
100
AcDbEntity
  8
0
  6
Continuous
 62
     7
370
     0
100
AcDbMText
 10
168.4090458961
 20
14.7189131175
 30
0.0
 40
6.35
 41
0.0
 71
     1
 72
     1
  1
USO130DS-EF
  7
SLDTEXTSTYLE1
 73
     1
 44
1.0
  0
INSERT
  5
178
330
1F
100
AcDbEntity
  8
0
  6
Continuous
 62
     7
370
     0
100
AcDbBlockReference
  2
SW_NOTE_1
 10
35.4202146835
 20
20.1681939512
 30
0.0
  0
LINE
  5
179
330
1F
100
AcDbEntity
  8
0
  6
Continuous
 62
     7
370
    15
100
AcDbLine
 10
185.9668578134
 20
152.2611892007
 30
0.0
 11
185.9668578134
 21
147.2611893125
 31
0.0
  0
LINE
  5
17A
330
1F
100
AcDbEntity
  8
0
  6
Continuous
 62
     7
370
    15
100
AcDbLine
 10
275.9668558018
 20
147.2611893125
 30
0.0
 11
275.9668558018
 21
152.2611892007
 31
0.0
  0
CIRCLE
  5
17B
330
1F
100
AcDbEntity
  8
0
  6
Continuous
 62
     7
370
    15
100
AcDbCircle
 10
237.7045479123
 20
225.3537298827
 30
0.0
 40
1.249999999999995
  0
CIRCLE
  5
17C
330
1F
100
AcDbEntity
  8
0
  6
Continuous
 62
     7
370
    15
100
AcDbCircle
 10
230.5593978248
 20
219.0234984313
 30
0.0
 40
1.249999999999995
  0
CIRCLE
  5
17D
330
1F
100
AcDbEntity
  8
0
  6
Continuous
 62
     7
370
    15
100
AcDbCircle
 10
224.2291663735
 20
226.1686485188
 30
0.0
 40
1.249999999999995
  0
CIRCLE
  5
17E
330
1F
100
AcDbEntity
  8
0
  6
Continuous
 62
     7
370
    15
100
AcDbCircle
 10
231.3743164609
 20
232.4988799701
 30
0.0
 40
1.249999999999993
  0
CIRCLE
  5
17F
330
1F
100
AcDbEntity
  8
0
  6
Continuous
 62
     7
370
    15
100
AcDbCircle
 10
230.9668571429
 20
225.7611892007
 30
0.0
 40
12.99999999999999
  0
CIRCLE
  5
180
330
1F
100
AcDbEntity
  8
0
  6
Continuous
 62
     7
370
    15
100
AcDbCircle
 10
230.9668571429
 20
225.7611892007
 30
0.0
 40
15.00000000000002
  0
CIRCLE
  5
181
330
1F
100
AcDbEntity
  8
0
  6
Continuous
 62
     7
370
    15
100
AcDbCircle
 10
230.9668571429
 20
167.2611892007
 30
0.0
 40
15.00000000000009
  0
CIRCLE
  5
182
330
1F
100
AcDbEntity
  8
0
  6
Continuous
 62
     7
370
    15
100
AcDbCircle
 10
230.9668571429
 20
167.2611892007
 30
0.0
 40
13.00000000000007
  0
CIRCLE
  5
183
330
1F
100
AcDbEntity
  8
0
  6
Continuous
 62
     7
370
    15
100
AcDbCircle
 10
237.6341634366
 20
168.3145299743
 30
0.0
 40
1.250000000000007
  0
CIRCLE
  5
184
330
1F
100
AcDbEntity
  8
0
  6
Continuous
 62
     7
370
    15
100
AcDbCircle
 10
229.9135163693
 20
173.9284954945
 30
0.0
 40
1.250000000000031
  0
CIRCLE
  5
185
330
1F
100
AcDbEntity
  8
0
  6
Continuous
 62
     7
370
    15
100
AcDbCircle
 10
224.2995508491
 20
166.2078484271
 30
0.0
 40
1.250000000000007
  0
CIRCLE
  5
186
330
1F
100
AcDbEntity
  8
0
  6
Continuous
 62
     7
370
    15
100
AcDbCircle
 10
232.0201979165
 20
160.593882907
 30
0.0
 40
1.250000000000007
  0
ARC
  5
187
330
1F
100
AcDbEntity
  8
0
  6
Continuous
 62
     7
370
    15
100
AcDbCircle
 10
230.9668571429
 20
167.2611892007
 30
0.0
 40
6.424999999999997
100
AcDbArc
 50
358.4616168186
 51
19.4938352014
  0
ARC
  5
188
330
1F
100
AcDbEntity
  8
0
  6
Continuous
 62
     7
370
    15
100
AcDbCircle
 10
230.9668571429
 20
167.2611892007
 30
0.0
 40
6.425000000000016
100
AcDbArc
 50
88.4616168186
 51
109.4938352014
  0
ARC
  5
189
330
1F
100
AcDbEntity
  8
0
  6
Continuous
 62
     7
370
    15
100
AcDbCircle
 10
230.9668571429
 20
167.2611892007
 30
0.0
 40
6.425000000000006
100
AcDbArc
 50
178.4616168186
 51
199.4938352014
  0
ARC
  5
18A
330
1F
100
AcDbEntity
  8
0
  6
Continuous
 62
     7
370
    15
100
AcDbCircle
 10
230.9668571429
 20
167.2611892007
 30
0.0
 40
6.425000000000009
100
AcDbArc
 50
268.4616168186
 51
289.4938352014
  0
ARC
  5
18B
330
1F
100
AcDbEntity
  8
0
  6
Continuous
 62
     7
370
    15
100
AcDbCircle
 10
230.9668571429
 20
167.2611892007
 30
0.0
 40
6.524999999999999
100
AcDbArc
 50
268.3470335022
 51
289.6084185178
  0
ARC
  5
18C
330
1F
100
AcDbEntity
  8
0
  6
Continuous
 62
     7
370
    15
100
AcDbCircle
 10
230.9668571429
 20
167.2611892007
 30
0.0
 40
6.525000000000003
100
AcDbArc
 50
178.3470335022
 51
199.6084185178
  0
ARC
  5
18D
330
1F
100
AcDbEntity
  8
0
  6
Continuous
 62
     7
370
    15
100
AcDbCircle
 10
230.9668571429
 20
167.2611892007
 30
0.0
 40
6.525000000000014
100
AcDbArc
 50
88.3470335022
 51
109.6084185178
  0
ARC
  5
18E
330
1F
100
AcDbEntity
  8
0
  6
Continuous
 62
     7
370
    15
100
AcDbCircle
 10
230.9668571429
 20
167.2611892007
 30
0.0
 40
6.524999999999992
100
AcDbArc
 50
358.3470335022
 51
19.6084185178
  0
ARC
  5
18F
330
1F
100
AcDbEntity
  8
0
  6
Continuous
 62
     7
370
    15
100
AcDbCircle
 10
230.9668571429
 20
167.2611892007
 30
0.0
 40
7.500000000000023
100
AcDbArc
 50
0.9184095864
 51
17.0370424336
  0
ARC
  5
190
330
1F
100
AcDbEntity
  8
0
  6
Continuous
 62
     7
370
    15
100
AcDbCircle
 10
230.9668571429
 20
167.2611892007
 30
0.0
 40
7.500000000000013
100
AcDbArc
 50
90.9184095864
 51
107.0370424336
  0
ARC
  5
191
330
1F
100
AcDbEntity
  8
0
  6
Continuous
 62
     7
370
    15
100
AcDbCircle
 10
230.9668571429
 20
167.2611892007
 30
0.0
 40
7.500000000000011
100
AcDbArc
 50
180.9184095864
 51
197.0370424336
  0
ARC
  5
192
330
1F
100
AcDbEntity
  8
0
  6
Continuous
 62
     7
370
    15
100
AcDbCircle
 10
230.9668571429
 20
167.2611892007
 30
0.0
 40
7.500000000000006
100
AcDbArc
 50
270.9184095864
 51
287.0370424336
  0
ARC
  5
193
330
1F
100
AcDbEntity
  8
0
  6
Continuous
 62
     7
370
    15
100
AcDbCircle
 10
230.9668571429
 20
167.2611892007
 30
0.0
 40
7.599999999999985
100
AcDbArc
 50
271.6410331067
 51
286.3144189133
  0
ARC
  5
194
330
1F
100
AcDbEntity
  8
0
  6
Continuous
 62
     7
370
    15
100
AcDbCircle
 10
230.9668571429
 20
167.2611892007
 30
0.0
 40
7.600000000000011
100
AcDbArc
 50
181.6410331067
 51
196.3144189133
  0
ARC
  5
195
330
1F
100
AcDbEntity
  8
0
  6
Continuous
 62
     7
370
    15
100
AcDbCircle
 10
230.9668571429
 20
167.2611892007
 30
0.0
 40
7.600000000000009
100
AcDbArc
 50
91.6410331067
 51
106.3144189133
  0
ARC
  5
196
330
1F
100
AcDbEntity
  8
0
  6
Continuous
 62
     7
370
    15
100
AcDbCircle
 10
230.9668571429
 20
167.2611892007
 30
0.0
 40
7.59999999999999
100
AcDbArc
 50
1.6410331067
 51
16.3144189133
  0
LINE
  5
197
330
1F
100
AcDbEntity
  8
0
  6
Continuous
 62
     7
370
    15
100
AcDbLine
 10
185.9668578134
 20
152.2611892007
 30
0.0
 11
200.9668574781
 21
152.2611892007
 31
0.0
  0
LINE
  5
198
330
1F
100
AcDbEntity
  8
0
  6
Continuous
 62
     7
370
    15
100
AcDbLine
 10
200.9668574781
 20
152.2611892007
 30
0.0
 11
200.9668574781
 21
147.2611893125
 31
0.0
  0
LINE
  5
199
330
1F
100
AcDbEntity
  8
0
  6
Continuous
 62
     7
370
    15
100
AcDbLine
 10
185.9668578134
 20
147.2611893125
 30
0.0
 11
200.9668574781
 21
147.2611893125
 31
0.0
  0
LINE
  5
19A
330
1F
100
AcDbEntity
  8
0
  6
Continuous
 62
     7
370
    15
100
AcDbLine
 10
260.966858931
 20
152.2611892007
 30
0.0
 11
260.966858931
 21
147.2611893125
 31
0.0
  0
LINE
  5
19B
330
1F
100
AcDbEntity
  8
0
  6
Continuous
 62
     7
370
    15
100
AcDbLine
 10
200.9668574781
 20
152.2611892007
 30
0.0
 11
215.9668571429
 21
152.2611892007
 31
0.0
  0
LINE
  5
19C
330
1F
100
AcDbEntity
  8
0
  6
Continuous
 62
     7
370
    15
100
AcDbLine
 10
245.9668564723
 20
152.2611892007
 30
0.0
 11
260.966858931
 21
152.2611892007
 31
0.0
  0
LINE
  5
19D
330
1F
100
AcDbEntity
  8
0
  6
Continuous
 62
     7
370
    15
100
AcDbLine
 10
200.9668574781
 20
147.2611893125
 30
0.0
 11
260.966858931
 21
147.2611893125
 31
0.0
  0
LINE
  5
19E
330
1F
100
AcDbEntity
  8
0
  6
Continuous
 62
     7
370
    15
100
AcDbLine
 10
260.966858931
 20
152.2611892007
 30
0.0
 11
275.9668558018
 21
152.2611892007
 31
0.0
  0
LINE
  5
19F
330
1F
100
AcDbEntity
  8
0
  6
Continuous
 62
     7
370
    15
100
AcDbLine
 10
260.966858931
 20
147.2611893125
 30
0.0
 11
275.9668558018
 21
147.2611893125
 31
0.0
  0
ARC
  5
1A0
330
1F
100
AcDbEntity
  8
0
  6
Continuous
 62
     7
370
    15
100
AcDbCircle
 10
230.9668571429
 20
225.7611892007
 30
0.0
 40
28.90000000000002
100
AcDbArc
 50
330.5547043502
 51
238.7327151764
  0
ARC
  5
1A1
330
1F
100
AcDbEntity
  8
0
  6
Continuous
 62
     7
370
    15
100
AcDbCircle
 10
230.9668571429
 20
225.7611892007
 30
0.0
 40
28.90000000000001
100
AcDbArc
 50
301.2672848236
 51
330.5547043502
  0
ARC
  5
1A2
330
1F
100
AcDbEntity
  8
0
  6
Continuous
 62
     7
370
    15
100
AcDbCircle
 10
230.9668571429
 20
225.7611892007
 30
0.0
 40
28.99999999999999
100
AcDbArc
 50
301.1473899215
 51
330.5547043502
  0
ARC
  5
1A3
330
1F
100
AcDbEntity
  8
0
  6
Continuous
 62
     7
370
    15
100
AcDbCircle
 10
230.9668571429
 20
225.7611892007
 30
0.0
 40
28.99999999999999
100
AcDbArc
 50
330.5547043502
 51
238.8526100785
  0
LINE
  5
1A4
330
1F
100
AcDbEntity
  8
0
  6
Continuous
 62
     7
370
    15
100
AcDbLine
 10
245.9668564723
 20
225.7611891411
 30
0.0
 11
245.9668564723
 21
152.2611892007
 31
0.0
  0
LINE
  5
1A5
330
1F
100
AcDbEntity
  8
0
  6
Continuous
 62
     7
370
    15
100
AcDbLine
 10
215.9668571429
 20
152.2611892007
 30
0.0
 11
215.9668571429
 21
225.7611891411
 31
0.0
  0
LINE
  5
1A6
330
1F
100
AcDbEntity
  8
0
  6
Continuous
 62
     7
370
    15
100
AcDbLine
 10
245.9668564723
 20
152.2611892007
 30
0.0
 11
215.9668571429
 21
152.2611892007
 31
0.0
  0
LINE
  5
1A7
330
1F
100
AcDbEntity
  8
0
  6
Continuous
 62
     7
370
    15
100
AcDbLine
 10
107.3194284764
 20
210.7611885451
 30
0.0
 11
109.3194285714
 21
210.7611885451
 31
0.0
  0
LINE
  5
1A8
330
1F
100
AcDbEntity
  8
0
  6
Continuous
 62
     7
370
    15
100
AcDbLine
 10
109.3194285714
 20
240.7611897372
 30
0.0
 11
107.3194284764
 21
240.7611897372
 31
0.0
  0
LINE
  5
1A9
330
1F
100
AcDbEntity
  8
0
  6
Continuous
 62
     7
370
    15
100
AcDbLine
 10
107.3194284764
 20
240.7611897372
 30
0.0
 11
105.3194283814
 21
238.761185684
 31
0.0
  0
LINE
  5
1AA
330
1F
100
AcDbEntity
  8
0
  6
Continuous
 62
     7
370
    15
100
AcDbLine
 10
105.3194283814
 20
212.7611888729
 30
0.0
 11
107.3194284764
 21
210.7611885451
 31
0.0
  0
LINE
  5
1AB
330
1F
100
AcDbEntity
  8
0
  6
Continuous
 62
     7
370
    15
100
AcDbLine
 10
144.3194287204
 20
210.7611885451
 30
0.0
 11
146.3194290483
 21
212.7611888729
 31
0.0
  0
LINE
  5
1AC
330
1F
100
AcDbEntity
  8
0
  6
Continuous
 62
     7
370
    15
100
AcDbLine
 10
146.3194290483
 20
238.761185684
 30
0.0
 11
144.3194287204
 21
240.7611897372
 31
0.0
  0
LINE
  5
1AD
330
1F
100
AcDbEntity
  8
0
  6
Continuous
 62
     7
370
    15
100
AcDbLine
 10
144.3194287204
 20
240.7611897372
 30
0.0
 11
143.3194304192
 21
240.7611897372
 31
0.0
  0
LINE
  5
1AE
330
1F
100
AcDbEntity
  8
0
  6
Continuous
 62
     7
370
    15
100
AcDbLine
 10
143.3194304192
 20
210.7611885451
 30
0.0
 11
144.3194287204
 21
210.7611885451
 31
0.0
  0
LINE
  5
1AF
330
1F
100
AcDbEntity
  8
0
  6
Continuous
 62
     7
370
    15
100
AcDbLine
 10
143.3194304192
 20
235.5111902736
 30
0.0
 11
142.8194294059
 21
235.5111902736
 31
0.0
  0
LINE
  5
1B0
330
1F
100
AcDbEntity
  8
0
  6
Continuous
 62
     7
370
    15
100
AcDbLine
 10
142.8194294059
 20
216.0111880086
 30
0.0
 11
143.3194304192
 21
216.0111880086
 31
0.0
  0
LINE
  5
1B1
330
1F
100
AcDbEntity
  8
0
  6
Continuous
 62
     7
370
    15
100
AcDbLine
 10
107.3194284764
 20
152.2611892007
 30
0.0
 11
109.3194285714
 21
152.2611892007
 31
0.0
  0
LINE
  5
1B2
330
1F
100
AcDbEntity
  8
0
  6
Continuous
 62
     7
370
    15
100
AcDbLine
 10
109.3194285714
 20
182.2611885302
 30
0.0
 11
107.3194284764
 21
182.2611885302
 31
0.0
  0
LINE
  5
1B3
330
1F
100
AcDbEntity
  8
0
  6
Continuous
 62
     7
370
    15
100
AcDbLine
 10
107.3194284764
 20
182.2611885302
 30
0.0
 11
105.3194283814
 21
180.261190065
 31
0.0
  0
LINE
  5
1B4
330
1F
100
AcDbEntity
  8
0
  6
Continuous
 62
     7
370
    15
100
AcDbLine
 10
105.3194283814
 20
154.2611892957
 30
0.0
 11
107.3194284764
 21
152.2611892007
 31
0.0
  0
LINE
  5
1B5
330
1F
100
AcDbEntity
  8
0
  6
Continuous
 62
     7
370
    15
100
AcDbLine
 10
145.3194270217
 20
173.4111895941
 30
0.0
 11
145.019429394
 21
173.7111890845
 31
0.0
  0
LINE
  5
1B6
330
1F
100
AcDbEntity
  8
0
  6
Continuous
 62
     7
370
    15
100
AcDbLine
 10
145.019429394
 20
173.7111890845
 30
0.0
 11
128.776699894
 21
173.7111890845
 31
0.0
  0
ARC
  5
1B7
330
1F
100
AcDbEntity
  8
0
  6
Continuous
 62
     7
370
    15
100
AcDbCircle
 10
128.7767003589
 20
172.7111892007
 30
0.0
 40
1.000000000000013
100
AcDbArc
 50
90.0
 51
158.6105166738
  0
ARC
  5
1B8
330
1F
100
AcDbEntity
  8
0
  6
Continuous
 62
     7
370
    15
100
AcDbCircle
 10
120.8621567839
 20
172.7111892007
 30
0.0
 40
1.0
100
AcDbArc
 50
21.3894833262
 51
90.0
  0
LINE
  5
1B9
330
1F
100
AcDbEntity
  8
0
  6
Continuous
 62
     7
370
    15
100
AcDbLine
 10
120.8621567422
 20
173.7111890845
 30
0.0
 11
115.3194286236
 21
173.7111890845
 31
0.0
  0
ARC
  5
1BA
330
1F
100
AcDbEntity
  8
0
  6
Continuous
 62
     7
370
    15
100
AcDbCircle
 10
124.8194285714
 20
174.2611892007
 30
0.0
 40
3.250000000000004
100
AcDbArc
 50
201.3894833262
 51
338.6105166738
  0
LINE
  5
1BB
330
1F
100
AcDbEntity
  8
0
  6
Continuous
 62
     7
370
    15
100
AcDbLine
 10
121.9194285878
 20
196.7611899756
 30
0.0
 11
123.3194290036
 21
196.7611899756
 31
0.0
  0
LINE
  5
1BC
330
1F
100
AcDbEntity
  8
0
  6
Continuous
 62
     7
370
    15
100
AcDbLine
 10
123.3194290036
 20
254.7611883066
 30
0.0
 11
121.9194285878
 21
254.7611883066
 31
0.0
  0
LINE
  5
1BD
330
1F
100
AcDbEntity
  8
0
  6
Continuous
 62
     7
370
    15
100
AcDbLine
 10
121.9194285878
 20
254.7611883066
 30
0.0
 11
121.8194287577
 21
254.6611866139
 31
0.0
  0
LINE
  5
1BE
330
1F
100
AcDbEntity
  8
0
  6
Continuous
 62
     7
370
    15
100
AcDbLine
 10
121.8194287577
 20
196.8611879431
 30
0.0
 11
121.9194285878
 21
196.7611899756
 31
0.0
  0
LINE
  5
1BF
330
1F
100
AcDbEntity
  8
0
  6
Continuous
 62
     7
370
    15
100
AcDbLine
 10
142.7194277131
 20
196.7611899756
 30
0.0
 11
142.8194294059
 21
196.8611879431
 31
0.0
  0
LINE
  5
1C0
330
1F
100
AcDbEntity
  8
0
  6
Continuous
 62
     7
370
    15
100
AcDbLine
 10
142.8194294059
 20
254.6611866139
 30
0.0
 11
142.7194277131
 21
254.7611883066
 31
0.0
  0
LINE
  5
1C1
330
1F
100
AcDbEntity
  8
0
  6
Continuous
 62
     7
370
    15
100
AcDbLine
 10
142.7194277131
 20
254.7611883066
 30
0.0
 11
141.3194300913
 21
254.7611883066
 31
0.0
  0
LINE
  5
1C2
330
1F
100
AcDbEntity
  8
0
  6
Continuous
 62
     7
370
    15
100
AcDbLine
 10
141.3194300913
 20
196.7611899756
 30
0.0
 11
142.7194277131
 21
196.7611899756
 31
0.0
  0
ARC
  5
1C3
330
1F
100
AcDbEntity
  8
0
  6
Continuous
 62
     7
370
    15
100
AcDbCircle
 10
132.2933771482
 20
187.1611892007
 30
0.0
 40
12.50000000000002
100
AcDbArc
 50
50.1746287392
 51
129.8253712608
  0
ARC
  5
1C4
330
1F
100
AcDbEntity
  8
0
  6
Continuous
 62
     7
370
    15
100
AcDbCircle
 10
132.2933771482
 20
264.3611892007
 30
0.0
 40
12.50000000000002
100
AcDbArc
 50
230.1746287392
 51
309.8253712608
  0
LINE
  5
1C5
330
1F
100
AcDbEntity
  8
0
  6
Continuous
 62
     7
370
    15
100
AcDbLine
 10
140.2990004354
 20
196.7611899756
 30
0.0
 11
141.3194300913
 21
196.7611899756
 31
0.0
  0
LINE
  5
1C6
330
1F
100
AcDbEntity
  8
0
  6
Continuous
 62
     7
370
    15
100
AcDbLine
 10
141.3194300913
 20
254.7611883066
 30
0.0
 11
140.2990004354
 21
254.7611883066
 31
0.0
  0
LINE
  5
1C7
330
1F
100
AcDbEntity
  8
0
  6
Continuous
 62
     7
370
    15
100
AcDbLine
 10
123.3194290036
 20
196.7611899756
 30
0.0
 11
124.2877539554
 21
196.7611899756
 31
0.0
  0
LINE
  5
1C8
330
1F
100
AcDbEntity
  8
0
  6
Continuous
 62
     7
370
    15
100
AcDbLine
 10
124.2877539554
 20
254.7611883066
 30
0.0
 11
123.3194290036
 21
254.7611883066
 31
0.0
  0
LINE
  5
1C9
330
1F
100
AcDbEntity
  8
0
  6
Continuous
 62
     7
370
    15
100
AcDbLine
 10
121.019428254
 20
210.7611885451
 30
0.0
 11
121.3194286757
 21
211.0611898981
 31
0.0
  0
LINE
  5
1CA
330
1F
100
AcDbEntity
  8
0
  6
Continuous
 62
     7
370
    15
100
AcDbLine
 10
121.3194286757
 20
240.4611921094
 30
0.0
 11
121.019428254
 21
240.7611897372
 31
0.0
  0
LINE
  5
1CB
330
1F
100
AcDbEntity
  8
0
  6
Continuous
 62
     7
370
    15
100
AcDbLine
 10
115.6194285796
 20
210.7611885451
 30
0.0
 11
121.019428254
 21
210.7611885451
 31
0.0
  0
LINE
  5
1CC
330
1F
100
AcDbEntity
  8
0
  6
Continuous
 62
     7
370
    15
100
AcDbLine
 10
121.019428254
 20
240.7611897372
 30
0.0
 11
115.6194285796
 21
240.7611897372
 31
0.0
  0
LINE
  5
1CD
330
1F
100
AcDbEntity
  8
0
  6
Continuous
 62
     7
370
    15
100
AcDbLine
 10
115.6194285796
 20
240.7611897372
 30
0.0
 11
115.3194286236
 21
240.4611921094
 31
0.0
  0
LINE
  5
1CE
330
1F
100
AcDbEntity
  8
0
  6
Continuous
 62
     7
370
    15
100
AcDbLine
 10
115.3194286236
 20
211.0611898981
 30
0.0
 11
115.6194285796
 21
210.7611885451
 31
0.0
  0
LINE
  5
1CF
330
1F
100
AcDbEntity
  8
0
  6
Continuous
 62
     7
370
    15
100
AcDbLine
 10
121.3194286757
 20
216.0111880086
 30
0.0
 11
121.8194287577
 21
216.0111880086
 31
0.0
  0
LINE
  5
1D0
330
1F
100
AcDbEntity
  8
0
  6
Continuous
 62
     7
370
    15
100
AcDbLine
 10
121.8194287577
 20
235.5111902736
 30
0.0
 11
121.3194286757
 21
235.5111902736
 31
0.0
  0
LINE
  5
1D1
330
1F
100
AcDbEntity
  8
0
  6
Continuous
 62
     7
370
    15
100
AcDbLine
 10
115.3194286236
 20
240.7611897372
 30
0.0
 11
109.3194285714
 21
240.7611897372
 31
0.0
  0
LINE
  5
1D2
330
1F
100
AcDbEntity
  8
0
  6
Continuous
 62
     7
370
    15
100
AcDbLine
 10
107.3194284764
 20
240.7611897372
 30
0.0
 11
107.3194284764
 21
210.7611885451
 31
0.0
  0
LINE
  5
1D3
330
1F
100
AcDbEntity
  8
0
  6
Continuous
 62
     7
370
    15
100
AcDbLine
 10
109.3194285714
 20
240.7611897372
 30
0.0
 11
109.3194285714
 21
225.7611891411
 31
0.0
  0
LINE
  5
1D4
330
1F
100
AcDbEntity
  8
0
  6
Continuous
 62
     7
370
    15
100
AcDbLine
 10
105.3194283814
 20
212.7611888729
 30
0.0
 11
105.3194283814
 21
238.761185684
 31
0.0
  0
LINE
  5
1D5
330
1F
100
AcDbEntity
  8
0
  6
Continuous
 62
     7
370
    15
100
AcDbLine
 10
146.3194290483
 20
225.7611891411
 30
0.0
 11
146.3194290483
 21
212.7611888729
 31
0.0
  0
LINE
  5
1D6
330
1F
100
AcDbEntity
  8
0
  6
Continuous
 62
     7
370
    15
100
AcDbLine
 10
146.3194290483
 20
238.761185684
 30
0.0
 11
146.3194290483
 21
225.7611891411
 31
0.0
  0
LINE
  5
1D7
330
1F
100
AcDbEntity
  8
0
  6
Continuous
 62
     7
370
    15
100
AcDbLine
 10
144.3194287204
 20
225.7611891411
 30
0.0
 11
144.3194287204
 21
240.7611897372
 31
0.0
  0
LINE
  5
1D8
330
1F
100
AcDbEntity
  8
0
  6
Continuous
 62
     7
370
    15
100
AcDbLine
 10
144.3194287204
 20
210.7611885451
 30
0.0
 11
144.3194287204
 21
225.7611891411
 31
0.0
  0
LINE
  5
1D9
330
1F
100
AcDbEntity
  8
0
  6
Continuous
 62
     7
370
    15
100
AcDbLine
 10
143.3194304192
 20
240.7611897372
 30
0.0
 11
143.3194304192
 21
210.7611885451
 31
0.0
  0
LINE
  5
1DA
330
1F
100
AcDbEntity
  8
0
  6
Continuous
 62
     7
370
    15
100
AcDbLine
 10
107.3194284764
 20
182.2611885302
 30
0.0
 11
107.3194284764
 21
152.2611892007
 31
0.0
  0
LINE
  5
1DB
330
1F
100
AcDbEntity
  8
0
  6
Continuous
 62
     7
370
    15
100
AcDbLine
 10
105.3194283814
 20
154.2611892957
 30
0.0
 11
105.3194283814
 21
180.261190065
 31
0.0
  0
LINE
  5
1DC
330
1F
100
AcDbEntity
  8
0
  6
Continuous
 62
     7
370
    15
100
AcDbLine
 10
145.3194270217
 20
173.4111895941
 30
0.0
 11
145.3194270217
 21
168.2611899607
 31
0.0
  0
LINE
  5
1DD
330
1F
100
AcDbEntity
  8
0
  6
Continuous
 62
     7
370
    15
100
AcDbLine
 10
145.019429394
 20
168.2611899607
 30
0.0
 11
145.019429394
 21
173.7111890845
 31
0.0
  0
LINE
  5
1DE
330
1F
100
AcDbEntity
  8
0
  6
Continuous
 62
     7
370
    15
100
AcDbLine
 10
115.3194286236
 20
152.2611892007
 30
0.0
 11
115.3194286236
 21
147.2611893125
 31
0.0
  0
LINE
  5
1DF
330
1F
100
AcDbEntity
  8
0
  6
Continuous
 62
     7
370
    15
100
AcDbLine
 10
115.3194286236
 20
152.2611892007
 30
0.0
 11
145.3194270217
 21
152.2611892007
 31
0.0
  0
LINE
  5
1E0
330
1F
100
AcDbEntity
  8
0
  6
Continuous
 62
     7
370
    15
100
AcDbLine
 10
145.3194270217
 20
152.2611892007
 30
0.0
 11
145.3194270217
 21
147.2611893125
 31
0.0
  0
LINE
  5
1E1
330
1F
100
AcDbEntity
  8
0
  6
Continuous
 62
     7
370
    15
100
AcDbLine
 10
115.3194286236
 20
147.2611893125
 30
0.0
 11
145.3194270217
 21
147.2611893125
 31
0.0
  0
LINE
  5
1E2
330
1F
100
AcDbEntity
  8
0
  6
Continuous
 62
     7
370
    15
100
AcDbLine
 10
121.9194285878
 20
211.5050098084
 30
0.0
 11
121.9194285878
 21
196.7611899756
 31
0.0
  0
LINE
  5
1E3
330
1F
100
AcDbEntity
  8
0
  6
Continuous
 62
     7
370
    15
100
AcDbLine
 10
121.9194285878
 20
254.7611883066
 30
0.0
 11
121.9194285878
 21
211.5050098084
 31
0.0
  0
LINE
  5
1E4
330
1F
100
AcDbEntity
  8
0
  6
Continuous
 62
     7
370
    15
100
AcDbLine
 10
123.3194290036
 20
211.5050098084
 30
0.0
 11
123.3194290036
 21
254.7611883066
 31
0.0
  0
LINE
  5
1E5
330
1F
100
AcDbEntity
  8
0
  6
Continuous
 62
     7
370
    15
100
AcDbLine
 10
123.3194290036
 20
196.7611899756
 30
0.0
 11
123.3194290036
 21
211.5050098084
 31
0.0
  0
LINE
  5
1E6
330
1F
100
AcDbEntity
  8
0
  6
Continuous
 62
     7
370
    15
100
AcDbLine
 10
121.8194287577
 20
211.5541687392
 30
0.0
 11
121.8194287577
 21
254.6611866139
 31
0.0
  0
LINE
  5
1E7
330
1F
100
AcDbEntity
  8
0
  6
Continuous
 62
     7
370
    15
100
AcDbLine
 10
121.8194287577
 20
196.8611879431
 30
0.0
 11
121.8194287577
 21
211.5541687392
 31
0.0
  0
LINE
  5
1E8
330
1F
100
AcDbEntity
  8
0
  6
Continuous
 62
     7
370
    15
100
AcDbLine
 10
142.8194294059
 20
236.3001099013
 30
0.0
 11
142.8194294059
 21
196.8611879431
 31
0.0
  0
LINE
  5
1E9
330
1F
100
AcDbEntity
  8
0
  6
Continuous
 62
     7
370
    15
100
AcDbLine
 10
142.8194294059
 20
254.6611866139
 30
0.0
 11
142.8194294059
 21
236.3001099013
 31
0.0
  0
LINE
  5
1EA
330
1F
100
AcDbEntity
  8
0
  6
Continuous
 62
     7
370
    15
100
AcDbLine
 10
142.7194277131
 20
236.3365730427
 30
0.0
 11
142.7194277131
 21
254.7611883066
 31
0.0
  0
LINE
  5
1EB
330
1F
100
AcDbEntity
  8
0
  6
Continuous
 62
     7
370
    15
100
AcDbLine
 10
142.7194277131
 20
196.7611899756
 30
0.0
 11
142.7194277131
 21
236.3365730427
 31
0.0
  0
LINE
  5
1EC
330
1F
100
AcDbEntity
  8
0
  6
Continuous
 62
     7
370
    15
100
AcDbLine
 10
141.3194300913
 20
236.3365730427
 30
0.0
 11
141.3194300913
 21
196.7611899756
 31
0.0
  0
LINE
  5
1ED
330
1F
100
AcDbEntity
  8
0
  6
Continuous
 62
     7
370
    15
100
AcDbLine
 10
141.3194300913
 20
254.7611883066
 30
0.0
 11
141.3194300913
 21
236.3365730427
 31
0.0
  0
LINE
  5
1EE
330
1F
100
AcDbEntity
  8
0
  6
Continuous
 62
     7
370
    15
100
AcDbLine
 10
124.2877539554
 20
196.7611899756
 30
0.0
 11
124.2877539554
 21
254.7611883066
 31
0.0
  0
LINE
  5
1EF
330
1F
100
AcDbEntity
  8
0
  6
Continuous
 62
     7
370
    15
100
AcDbLine
 10
140.2990004354
 20
233.5228240274
 30
0.0
 11
140.2990004354
 21
196.7611899756
 31
0.0
  0
LINE
  5
1F0
330
1F
100
AcDbEntity
  8
0
  6
Continuous
 62
     7
370
    15
100
AcDbLine
 10
140.2990004354
 20
254.7611883066
 30
0.0
 11
140.2990004354
 21
233.5228240274
 31
0.0
  0
LINE
  5
1F1
330
1F
100
AcDbEntity
  8
0
  6
Continuous
 62
     7
370
    15
100
AcDbLine
 10
141.3194300913
 20
254.7611883066
 30
0.0
 11
141.3194300913
 21
196.7611899756
 31
0.0
  0
LINE
  5
1F2
330
1F
100
AcDbEntity
  8
0
  6
Continuous
 62
     7
370
    15
100
AcDbLine
 10
123.3194290036
 20
254.7611883066
 30
0.0
 11
123.3194290036
 21
196.7611899756
 31
0.0
  0
LINE
  5
1F3
330
1F
100
AcDbEntity
  8
0
  6
Continuous
 62
     7
370
    15
100
AcDbLine
 10
121.3194286757
 20
240.4611921094
 30
0.0
 11
121.3194286757
 21
211.0611898981
 31
0.0
  0
LINE
  5
1F4
330
1F
100
AcDbEntity
  8
0
  6
Continuous
 62
     7
370
    15
100
AcDbLine
 10
121.019428254
 20
210.7611885451
 30
0.0
 11
121.019428254
 21
240.7611897372
 31
0.0
  0
LINE
  5
1F5
330
1F
100
AcDbEntity
  8
0
  6
Continuous
 62
     7
370
    15
100
AcDbLine
 10
115.6194285796
 20
240.7611897372
 30
0.0
 11
115.6194285796
 21
210.7611885451
 31
0.0
  0
LINE
  5
1F6
330
1F
100
AcDbEntity
  8
0
  6
Continuous
 62
     7
370
    15
100
AcDbLine
 10
114.3194284597
 20
152.2611892007
 30
0.0
 11
115.3194286236
 21
152.2611892007
 31
0.0
  0
LINE
  5
1F7
330
1F
100
AcDbEntity
  8
0
  6
Continuous
 62
     7
370
    15
100
AcDbLine
 10
114.3194284597
 20
152.2611892007
 30
0.0
 11
115.3194286236
 21
153.2611892482
 31
0.0
  0
LINE
  5
1F8
330
1F
100
AcDbEntity
  8
0
  6
Continuous
 62
     7
370
    15
100
AcDbLine
 10
115.3194286236
 20
153.2611892482
 30
0.0
 11
116.3194287875
 21
152.2611892007
 31
0.0
  0
LINE
  5
1F9
330
1F
100
AcDbEntity
  8
0
  6
Continuous
 62
     7
370
    15
100
AcDbLine
 10
115.3194286236
 20
152.2611892007
 30
0.0
 11
115.3194286236
 21
168.2611899607
 31
0.0
  0
LINE
  5
1FA
330
1F
100
AcDbEntity
  8
0
  6
Continuous
 62
     7
370
    15
100
AcDbLine
 10
145.3194270217
 20
168.2611899607
 30
0.0
 11
115.3194286236
 21
168.2611899607
 31
0.0
  0
LINE
  5
1FB
330
1F
100
AcDbEntity
  8
0
  6
Continuous
 62
     7
370
    15
100
AcDbLine
 10
145.3194270217
 20
152.2611892007
 30
0.0
 11
145.3194270217
 21
168.2611899607
 31
0.0
  0
LINE
  5
1FC
330
1F
100
AcDbEntity
  8
0
  6
Continuous
 62
     7
370
    15
100
AcDbLine
 10
109.3194285714
 20
225.7611891411
 30
0.0
 11
109.3194285714
 21
152.2611892007
 31
0.0
  0
LINE
  5
1FD
330
1F
100
AcDbEntity
  8
0
  6
Continuous
 62
     7
370
    15
100
AcDbLine
 10
115.3194286236
 20
225.7611891411
 30
0.0
 11
109.3194285714
 21
225.7611891411
 31
0.0
  0
LINE
  5
1FE
330
1F
100
AcDbEntity
  8
0
  6
Continuous
 62
     7
370
    15
100
AcDbLine
 10
115.3194286236
 20
225.7611891411
 30
0.0
 11
115.3194286236
 21
153.2611892482
 31
0.0
  0
LINE
  5
1FF
330
1F
100
AcDbEntity
  8
0
  6
Continuous
 62
     7
370
    15
100
AcDbLine
 10
114.3194284597
 20
152.2611892007
 30
0.0
 11
109.3194285714
 21
152.2611892007
 31
0.0
  0
LINE
  5
200
330
1F
100
AcDbEntity
  8
0
  6
Continuous
 62
     7
370
    15
100
AcDbLine
 10
115.3194286236
 20
240.7611897372
 30
0.0
 11
115.3194286236
 21
225.7611891411
 31
0.0
  0
LINE
  5
201
330
1F
100
AcDbEntity
  8
0
  6
Continuous
 62
     8
370
    15
100
AcDbLine
 10
128.776699894
 20
173.7111890845
 30
0.0
 11
128.776699894
 21
168.2611899607
 31
0.0
  0
LINE
  5
202
330
1F
100
AcDbEntity
  8
0
  6
Continuous
 62
     8
370
    15
100
AcDbLine
 10
127.8455784851
 20
168.2611899607
 30
0.0
 11
127.8455784851
 21
173.0758948408
 31
0.0
  0
LINE
  5
203
330
1F
100
AcDbEntity
  8
0
  6
Continuous
 62
     8
370
    15
100
AcDbLine
 10
121.7932800138
 20
173.0758948408
 30
0.0
 11
121.7932800138
 21
168.2611899607
 31
0.0
  0
LINE
  5
204
330
1F
100
AcDbEntity
  8
0
  6
Continuous
 62
     8
370
    15
100
AcDbLine
 10
120.8621567422
 20
168.2611899607
 30
0.0
 11
120.8621567422
 21
173.7111890845
 31
0.0
  0
LINE
  5
205
330
1F
100
AcDbEntity
  8
0
  6
Continuous
 62
     7
370
    15
100
AcDbLine
 10
245.9668564723
 20
76.1597141907
 30
0.0
 11
245.9668564723
 21
78.1597142857
 31
0.0
  0
LINE
  5
206
330
1F
100
AcDbEntity
  8
0
  6
Continuous
 62
     7
370
    15
100
AcDbLine
 10
215.9668571429
 20
78.1597142857
 30
0.0
 11
215.9668571429
 21
76.1597141907
 31
0.0
  0
LINE
  5
207
330
1F
100
AcDbEntity
  8
0
  6
Continuous
 62
     7
370
    15
100
AcDbLine
 10
215.9668571429
 20
76.1597141907
 30
0.0
 11
217.9668572379
 21
74.1597140957
 31
0.0
  0
LINE
  5
208
330
1F
100
AcDbEntity
  8
0
  6
Continuous
 62
     7
370
    15
100
AcDbLine
 10
243.9668580071
 20
74.1597140957
 30
0.0
 11
245.9668564723
 21
76.1597141907
 31
0.0
  0
LINE
  5
209
330
1F
100
AcDbEntity
  8
0
  6
Continuous
 62
     7
370
    15
100
AcDbLine
 10
245.9668564723
 20
113.1597144347
 30
0.0
 11
243.9668580071
 21
115.1597147626
 31
0.0
  0
LINE
  5
20A
330
1F
100
AcDbEntity
  8
0
  6
Continuous
 62
     7
370
    15
100
AcDbLine
 10
217.9668572379
 20
115.1597147626
 30
0.0
 11
215.9668571429
 21
113.1597144347
 31
0.0
  0
LINE
  5
20B
330
1F
100
AcDbEntity
  8
0
  6
Continuous
 62
     7
370
    15
100
AcDbLine
 10
215.9668571429
 20
113.1597144347
 30
0.0
 11
215.9668571429
 21
112.1597161335
 31
0.0
  0
LINE
  5
20C
330
1F
100
AcDbEntity
  8
0
  6
Continuous
 62
     7
370
    15
100
AcDbLine
 10
245.9668564723
 20
112.1597161335
 30
0.0
 11
245.9668564723
 21
113.1597144347
 31
0.0
  0
LINE
  5
20D
330
1F
100
AcDbEntity
  8
0
  6
Continuous
 62
     7
370
    15
100
AcDbLine
 10
221.2168570721
 20
112.1597161335
 30
0.0
 11
221.2168570721
 21
111.6597151202
 31
0.0
  0
LINE
  5
20E
330
1F
100
AcDbEntity
  8
0
  6
Continuous
 62
     7
370
    15
100
AcDbLine
 10
240.7168570087
 20
111.6597151202
 30
0.0
 11
240.7168570087
 21
112.1597161335
 31
0.0
  0
LINE
  5
20F
330
1F
100
AcDbEntity
  8
0
  6
Continuous
 62
     7
370
    15
100
AcDbLine
 10
259.9668569044
 20
90.7597143021
 30
0.0
 11
259.9668569044
 21
92.1597147178
 31
0.0
  0
LINE
  5
210
330
1F
100
AcDbEntity
  8
0
  6
Continuous
 62
     7
370
    15
100
AcDbLine
 10
201.9668567107
 20
92.1597147178
 30
0.0
 11
201.9668567107
 21
90.7597143021
 31
0.0
  0
LINE
  5
211
330
1F
100
AcDbEntity
  8
0
  6
Continuous
 62
     7
370
    15
100
AcDbLine
 10
201.9668567107
 20
90.7597143021
 30
0.0
 11
202.0668574722
 21
90.659714472
 31
0.0
  0
LINE
  5
212
330
1F
100
AcDbEntity
  8
0
  6
Continuous
 62
     7
370
    15
100
AcDbLine
 10
259.866858937
 20
90.659714472
 30
0.0
 11
259.9668569044
 21
90.7597143021
 31
0.0
  0
LINE
  5
213
330
1F
100
AcDbEntity
  8
0
  6
Continuous
 62
     7
370
    15
100
AcDbLine
 10
201.9668567107
 20
111.5597134274
 30
0.0
 11
201.9668567107
 21
110.1597158056
 31
0.0
  0
LINE
  5
214
330
1F
100
AcDbEntity
  8
0
  6
Continuous
 62
     7
370
    15
100
AcDbLine
 10
259.9668569044
 20
110.1597158056
 30
0.0
 11
259.9668569044
 21
111.5597134274
 31
0.0
  0
LINE
  5
215
330
1F
100
AcDbEntity
  8
0
  6
Continuous
 62
     7
370
    15
100
AcDbLine
 10
259.9668569044
 20
111.5597134274
 30
0.0
 11
259.866858937
 21
111.6597151202
 31
0.0
  0
LINE
  5
216
330
1F
100
AcDbEntity
  8
0
  6
Continuous
 62
     7
370
    15
100
AcDbLine
 10
202.0668574722
 20
111.6597151202
 30
0.0
 11
201.9668567107
 21
111.5597134274
 31
0.0
  0
ARC
  5
217
330
1F
100
AcDbEntity
  8
0
  6
Continuous
 62
     7
370
    15
100
AcDbCircle
 10
269.5668571429
 20
101.1336628625
 30
0.0
 40
12.49999999999998
100
AcDbArc
 50
140.1746287392
 51
219.8253712608
  0
ARC
  5
218
330
1F
100
AcDbEntity
  8
0
  6
Continuous
 62
     7
370
    15
100
AcDbCircle
 10
192.3668571429
 20
101.1336628625
 30
0.0
 40
12.5
100
AcDbArc
 50
320.1746287392
 51
39.8253712608
  0
LINE
  5
219
330
1F
100
AcDbEntity
  8
0
  6
Continuous
 62
     7
370
    15
100
AcDbLine
 10
259.9668569044
 20
109.1392861497
 30
0.0
 11
259.9668569044
 21
110.1597158056
 31
0.0
  0
LINE
  5
21A
330
1F
100
AcDbEntity
  8
0
  6
Continuous
 62
     7
370
    15
100
AcDbLine
 10
201.9668567107
 20
110.1597158056
 30
0.0
 11
201.9668567107
 21
109.1392861497
 31
0.0
  0
LINE
  5
21B
330
1F
100
AcDbEntity
  8
0
  6
Continuous
 62
     7
370
    15
100
AcDbLine
 10
259.9668569044
 20
92.1597147178
 30
0.0
 11
259.9668569044
 21
93.1280396697
 31
0.0
  0
LINE
  5
21C
330
1F
100
AcDbEntity
  8
0
  6
Continuous
 62
     7
370
    15
100
AcDbLine
 10
201.9668567107
 20
93.1280396697
 30
0.0
 11
201.9668567107
 21
92.1597147178
 31
0.0
  0
LINE
  5
21D
330
1F
100
AcDbEntity
  8
0
  6
Continuous
 62
     7
370
    15
100
AcDbLine
 10
245.9668564723
 20
89.8597139683
 30
0.0
 11
245.6668569819
 21
90.15971439
 31
0.0
  0
LINE
  5
21E
330
1F
100
AcDbEntity
  8
0
  6
Continuous
 62
     7
370
    15
100
AcDbLine
 10
216.2668571571
 20
90.15971439
 30
0.0
 11
215.9668571429
 21
89.8597139683
 31
0.0
  0
LINE
  5
21F
330
1F
100
AcDbEntity
  8
0
  6
Continuous
 62
     7
370
    15
100
AcDbLine
 10
245.9668564723
 20
84.4597142939
 30
0.0
 11
245.9668564723
 21
89.8597139683
 31
0.0
  0
LINE
  5
220
330
1F
100
AcDbEntity
  8
0
  6
Continuous
 62
     7
370
    15
100
AcDbLine
 10
215.9668571429
 20
89.8597139683
 30
0.0
 11
215.9668571429
 21
84.4597142939
 31
0.0
  0
LINE
  5
221
330
1F
100
AcDbEntity
  8
0
  6
Continuous
 62
     7
370
    15
100
AcDbLine
 10
215.9668571429
 20
84.4597142939
 30
0.0
 11
216.2668571571
 21
84.1597143379
 31
0.0
  0
LINE
  5
222
330
1F
100
AcDbEntity
  8
0
  6
Continuous
 62
     7
370
    15
100
AcDbLine
 10
245.6668569819
 20
84.1597143379
 30
0.0
 11
245.9668564723
 21
84.4597142939
 31
0.0
  0
LINE
  5
223
330
1F
100
AcDbEntity
  8
0
  6
Continuous
 62
     7
370
    15
100
AcDbLine
 10
240.7168570087
 20
90.15971439
 30
0.0
 11
240.7168570087
 21
90.659714472
 31
0.0
  0
LINE
  5
224
330
1F
100
AcDbEntity
  8
0
  6
Continuous
 62
     7
370
    15
100
AcDbLine
 10
221.2168570721
 20
90.659714472
 30
0.0
 11
221.2168570721
 21
90.15971439
 31
0.0
  0
LINE
  5
225
330
1F
100
AcDbEntity
  8
0
  6
Continuous
 62
     7
370
    15
100
AcDbLine
 10
215.9668571429
 20
76.1597141907
 30
0.0
 11
245.9668564723
 21
76.1597141907
 31
0.0
  0
LINE
  5
226
330
1F
100
AcDbEntity
  8
0
  6
Continuous
 62
     7
370
    15
100
AcDbLine
 10
215.9668571429
 20
78.1597142857
 30
0.0
 11
245.9668564723
 21
78.1597142857
 31
0.0
  0
LINE
  5
227
330
1F
100
AcDbEntity
  8
0
  6
Continuous
 62
     7
370
    15
100
AcDbLine
 10
217.9905638212
 20
74.1597140957
 30
0.0
 11
217.9668572379
 21
74.1597140957
 31
0.0
  0
LINE
  5
228
330
1F
100
AcDbEntity
  8
0
  6
Continuous
 62
     7
370
    15
100
AcDbLine
 10
243.9668580071
 20
74.1597140957
 30
0.0
 11
217.9905638212
 21
74.1597140957
 31
0.0
  0
LINE
  5
229
330
1F
100
AcDbEntity
  8
0
  6
Continuous
 62
     7
370
    15
100
AcDbLine
 10
217.9668572379
 20
115.1597147626
 30
0.0
 11
243.9668580071
 21
115.1597147626
 31
0.0
  0
LINE
  5
22A
330
1F
100
AcDbEntity
  8
0
  6
Continuous
 62
     7
370
    15
100
AcDbLine
 10
245.9668564723
 20
113.1597144347
 30
0.0
 11
215.9668571429
 21
113.1597144347
 31
0.0
  0
LINE
  5
22B
330
1F
100
AcDbEntity
  8
0
  6
Continuous
 62
     7
370
    15
100
AcDbLine
 10
215.9668571429
 20
112.1597161335
 30
0.0
 11
245.9668564723
 21
112.1597161335
 31
0.0
  0
LINE
  5
22C
330
1F
100
AcDbEntity
  8
0
  6
Continuous
 62
     7
370
    15
100
AcDbLine
 10
200.9668574781
 20
84.1597143379
 30
0.0
 11
215.9668571429
 21
84.1597143379
 31
0.0
  0
LINE
  5
22D
330
1F
100
AcDbEntity
  8
0
  6
Continuous
 62
     7
370
    15
100
AcDbLine
 10
245.9668564723
 20
84.1597143379
 30
0.0
 11
260.966858931
 21
84.1597143379
 31
0.0
  0
ARC
  5
22E
330
1F
100
AcDbEntity
  8
0
  6
Continuous
 62
     7
370
    15
100
AcDbCircle
 10
200.9668571429
 20
99.1597142857
 30
0.0
 40
15.0
100
AcDbArc
 50
90.0
 51
270.0
  0
LINE
  5
22F
330
1F
100
AcDbEntity
  8
0
  6
Continuous
 62
     7
370
    15
100
AcDbLine
 10
260.966858931
 20
114.159712736
 30
0.0
 11
245.9668564723
 21
114.159712736
 31
0.0
  0
LINE
  5
230
330
1F
100
AcDbEntity
  8
0
  6
Continuous
 62
     7
370
    15
100
AcDbLine
 10
215.9668571429
 20
114.159712736
 30
0.0
 11
200.9668574781
 21
114.159712736
 31
0.0
  0
ARC
  5
231
330
1F
100
AcDbEntity
  8
0
  6
Continuous
 62
     7
370
    15
100
AcDbCircle
 10
260.9668571429
 20
99.1597142857
 30
0.0
 40
15.0
100
AcDbArc
 50
270.0
 51
90.0
  0
ARC
  5
232
330
1F
100
AcDbEntity
  8
0
  6
Continuous
 62
     7
370
    15
100
AcDbCircle
 10
200.9668571429
 20
99.1597142857
 30
0.0
 40
6.855000000000018
100
AcDbArc
 50
180.0
 51
278.3881788338
  0
ARC
  5
233
330
1F
100
AcDbEntity
  8
0
  6
Continuous
 62
     7
370
    15
100
AcDbCircle
 10
200.9668571429
 20
99.1597142857
 30
0.0
 40
6.855000000000018
100
AcDbArc
 50
62.0274404786
 51
180.0
  0
ARC
  5
234
330
1F
100
AcDbEntity
  8
0
  6
Continuous
 62
     7
370
    15
100
AcDbCircle
 10
260.9668571429
 20
99.1597142857
 30
0.0
 40
6.855000000000014
100
AcDbArc
 50
261.6118211662
 51
117.9725595214
  0
CIRCLE
  5
235
330
1F
100
AcDbEntity
  8
0
  6
Continuous
 62
     7
370
    15
100
AcDbCircle
 10
200.9668571429
 20
99.1597142857
 30
0.0
 40
3.299999999999983
  0
CIRCLE
  5
236
330
1F
100
AcDbEntity
  8
0
  6
Continuous
 62
     7
370
    15
100
AcDbCircle
 10
260.9668571429
 20
99.1597142857
 30
0.0
 40
3.299999999999955
  0
LINE
  5
237
330
1F
100
AcDbEntity
  8
0
  6
Continuous
 62
     7
370
    15
100
AcDbLine
 10
259.9668569044
 20
92.1597147178
 30
0.0
 11
201.9668567107
 21
92.1597147178
 31
0.0
  0
LINE
  5
238
330
1F
100
AcDbEntity
  8
0
  6
Continuous
 62
     7
370
    15
100
AcDbLine
 10
201.9668567107
 20
90.7597143021
 30
0.0
 11
259.9668569044
 21
90.7597143021
 31
0.0
  0
LINE
  5
239
330
1F
100
AcDbEntity
  8
0
  6
Continuous
 62
     7
370
    15
100
AcDbLine
 10
259.866858937
 20
90.659714472
 30
0.0
 11
202.0668574722
 21
90.659714472
 31
0.0
  0
LINE
  5
23A
330
1F
100
AcDbEntity
  8
0
  6
Continuous
 62
     7
370
    15
100
AcDbLine
 10
257.9698442594
 20
110.1597158056
 30
0.0
 11
259.9668569044
 21
110.1597158056
 31
0.0
  0
LINE
  5
23B
330
1F
100
AcDbEntity
  8
0
  6
Continuous
 62
     7
370
    15
100
AcDbLine
 10
201.9668567107
 20
110.1597158056
 30
0.0
 11
257.9698442594
 21
110.1597158056
 31
0.0
  0
LINE
  5
23C
330
1F
100
AcDbEntity
  8
0
  6
Continuous
 62
     7
370
    15
100
AcDbLine
 10
257.9698442594
 20
111.5597134274
 30
0.0
 11
201.9668567107
 21
111.5597134274
 31
0.0
  0
LINE
  5
23D
330
1F
100
AcDbEntity
  8
0
  6
Continuous
 62
     7
370
    15
100
AcDbLine
 10
259.9668569044
 20
111.5597134274
 30
0.0
 11
257.9698442594
 21
111.5597134274
 31
0.0
  0
LINE
  5
23E
330
1F
100
AcDbEntity
  8
0
  6
Continuous
 62
     7
370
    15
100
AcDbLine
 10
257.8767306284
 20
111.6597151202
 30
0.0
 11
259.866858937
 21
111.6597151202
 31
0.0
  0
LINE
  5
23F
330
1F
100
AcDbEntity
  8
0
  6
Continuous
 62
     7
370
    15
100
AcDbLine
 10
202.0668574722
 20
111.6597151202
 30
0.0
 11
257.8767306284
 21
111.6597151202
 31
0.0
  0
LINE
  5
240
330
1F
100
AcDbEntity
  8
0
  6
Continuous
 62
     7
370
    15
100
AcDbLine
 10
259.9668569044
 20
93.1280396697
 30
0.0
 11
201.9668567107
 21
93.1280396697
 31
0.0
  0
LINE
  5
241
330
1F
100
AcDbEntity
  8
0
  6
Continuous
 62
     7
370
    15
100
AcDbLine
 10
258.9088856355
 20
109.1392861497
 30
0.0
 11
259.9668569044
 21
109.1392861497
 31
0.0
  0
LINE
  5
242
330
1F
100
AcDbEntity
  8
0
  6
Continuous
 62
     7
370
    15
100
AcDbLine
 10
201.9668567107
 20
109.1392861497
 30
0.0
 11
258.9088856355
 21
109.1392861497
 31
0.0
  0
LINE
  5
243
330
1F
100
AcDbEntity
  8
0
  6
Continuous
 62
     7
370
    15
100
AcDbLine
 10
201.9668567107
 20
110.1597158056
 30
0.0
 11
259.9668569044
 21
110.1597158056
 31
0.0
  0
LINE
  5
244
330
1F
100
AcDbEntity
  8
0
  6
Continuous
 62
     7
370
    15
100
AcDbLine
 10
216.2668571571
 20
90.15971439
 30
0.0
 11
245.6668569819
 21
90.15971439
 31
0.0
  0
LINE
  5
245
330
1F
100
AcDbEntity
  8
0
  6
Continuous
 62
     7
370
    15
100
AcDbLine
 10
245.9668564723
 20
89.8597139683
 30
0.0
 11
215.9668571429
 21
89.8597139683
 31
0.0
  0
LINE
  5
246
330
1F
100
AcDbEntity
  8
0
  6
Continuous
 62
     7
370
    15
100
AcDbLine
 10
215.9668571429
 20
84.4597142939
 30
0.0
 11
245.9668564723
 21
84.4597142939
 31
0.0
  0
LINE
  5
247
330
1F
100
AcDbEntity
  8
0
  6
Continuous
 62
     7
370
    15
100
AcDbLine
 10
244.9668563084
 20
114.159712736
 30
0.0
 11
245.9668564723
 21
114.159712736
 31
0.0
  0
LINE
  5
248
330
1F
100
AcDbEntity
  8
0
  6
Continuous
 62
     7
370
    15
100
AcDbLine
 10
245.9668564723
 20
114.159712736
 30
0.0
 11
245.9668564723
 21
111.6597151202
 31
0.0
  0
LINE
  5
249
330
1F
100
AcDbEntity
  8
0
  6
Continuous
 62
     7
370
    15
100
AcDbLine
 10
245.9668564723
 20
90.659714472
 30
0.0
 11
245.9668564723
 21
84.1597143379
 31
0.0
  0
LINE
  5
24A
330
1F
100
AcDbEntity
  8
0
  6
Continuous
 62
     7
370
    15
100
AcDbLine
 10
215.9668571429
 20
84.1597143379
 30
0.0
 11
215.9668571429
 21
90.659714472
 31
0.0
  0
LINE
  5
24B
330
1F
100
AcDbEntity
  8
0
  6
Continuous
 62
     7
370
    15
100
AcDbLine
 10
215.9668571429
 20
111.6597151202
 30
0.0
 11
215.9668571429
 21
114.159712736
 31
0.0
  0
LINE
  5
24C
330
1F
100
AcDbEntity
  8
0
  6
Continuous
 62
     7
370
    15
100
AcDbLine
 10
215.9668571429
 20
114.159712736
 30
0.0
 11
216.9668571904
 21
114.159712736
 31
0.0
  0
LINE
  5
24D
330
1F
100
AcDbEntity
  8
0
  6
Continuous
 62
     7
370
    15
100
AcDbLine
 10
215.9668571429
 20
84.1597143379
 30
0.0
 11
215.9668571429
 21
78.1597142857
 31
0.0
  0
LINE
  5
24E
330
1F
100
AcDbEntity
  8
0
  6
Continuous
 62
     7
370
    15
100
AcDbLine
 10
215.9668571429
 20
84.1597143379
 30
0.0
 11
245.9668564723
 21
84.1597143379
 31
0.0
  0
LINE
  5
24F
330
1F
100
AcDbEntity
  8
0
  6
Continuous
 62
     7
370
    15
100
AcDbLine
 10
245.9668564723
 20
84.1597143379
 30
0.0
 11
245.9668564723
 21
78.1597142857
 31
0.0
  0
LINE
  5
250
330
1F
100
AcDbEntity
  8
0
  6
Continuous
 62
     7
370
    15
100
AcDbLine
 10
22.128017064
 20
124.6205466243
 30
0.0
 11
22.128017064
 21
122.9877303231
 31
0.0
  0
LINE
  5
251
330
1F
100
AcDbEntity
  8
0
  6
Continuous
 62
     7
370
    15
100
AcDbLine
 10
31.3189113363
 20
107.0669092231
 30
0.0
 11
32.7328951338
 21
106.2503681614
 31
0.0
  0
LINE
  5
252
330
1F
100
AcDbEntity
  8
0
  6
Continuous
 62
     7
370
    15
100
AcDbLine
 10
40.2340094735
 20
105.5067507085
 30
0.0
 11
41.648223103
 21
106.3231588591
 31
0.0
  0
LINE
  5
253
330
1F
100
AcDbEntity
  8
0
  6
Continuous
 62
     7
370
    15
100
AcDbLine
 10
26.6494419041
 20
132.3046289068
 30
0.0
 11
25.2352282746
 21
131.4882207562
 31
0.0
  0
LINE
  5
254
330
1F
100
AcDbEntity
  8
0
  6
Continuous
 62
     7
370
    15
100
AcDbLine
 10
22.128017064
 20
76.8529089038
 30
0.0
 11
22.128017064
 21
75.2200926026
 31
0.0
  0
LINE
  5
255
330
1F
100
AcDbEntity
  8
0
  6
Continuous
 62
     7
370
    15
100
AcDbLine
 10
31.3189113363
 20
59.299272073
 30
0.0
 11
32.7328951338
 21
58.4827313633
 31
0.0
  0
LINE
  5
256
330
1F
100
AcDbEntity
  8
0
  6
Continuous
 62
     7
370
    15
100
AcDbLine
 10
40.2340094735
 20
57.7391152695
 30
0.0
 11
41.648223103
 21
58.5555234201
 31
0.0
  0
LINE
  5
257
330
1F
100
AcDbEntity
  8
0
  6
Continuous
 62
     7
370
    15
100
AcDbLine
 10
26.6494419041
 20
84.536988905
 30
0.0
 11
25.2352282746
 21
83.7205807544
 31
0.0
  0
LINE
  5
258
330
1F
100
AcDbEntity
  8
0
  6
Continuous
 62
     7
370
    15
100
AcDbLine
 10
56.1678071467
 20
91.7051563299
 30
0.0
 11
48.9980750376
 21
87.5661580844
 31
0.0
  0
LINE
  5
259
330
1F
100
AcDbEntity
  8
0
  6
Continuous
 62
     7
370
    15
100
AcDbLine
 10
59.605382478
 20
91.2629200187
 30
0.0
 11
59.3932863654
 21
91.3854018289
 31
0.0
  0
LINE
  5
25A
330
1F
100
AcDbEntity
  8
0
  6
Continuous
 62
     7
370
    15
100
AcDbLine
 10
85.2112781638
 20
51.5416052754
 30
0.0
 11
85.2112781638
 21
55.6243092436
 31
0.0
  0
LINE
  5
25B
330
1F
100
AcDbEntity
  8
0
  6
Continuous
 62
     7
370
    15
100
AcDbLine
 10
12.7848705943
 20
80.1165512905
 30
0.0
 11
12.7848705943
 21
76.0338473223
 31
0.0
  0
LINE
  5
25C
330
1F
100
AcDbEntity
  8
0
  6
Continuous
 62
     7
370
    15
100
AcDbLine
 10
22.5522809059
 20
136.2951828452
 30
0.0
 11
22.5522815645
 21
136.2135417925
 31
0.0
  0
LINE
  5
25D
330
1F
100
AcDbEntity
  8
0
  6
Continuous
 62
     7
370
    15
100
AcDbLine
 10
57.5571997398
 20
99.3418470152
 30
0.0
 11
58.5471495274
 21
99.9133328632
 31
0.0
  0
LINE
  5
25E
330
1F
100
AcDbEntity
  8
0
  6
Continuous
 62
     7
370
    15
100
AcDbLine
 10
29.5495059641
 20
150.1441657792
 30
0.0
 11
28.5595561764
 21
149.5726799312
 31
0.0
  0
LINE
  5
25F
330
1F
100
AcDbEntity
  8
0
  6
Continuous
 62
     7
370
    15
100
AcDbLine
 10
43.2673766066
 20
158.0633239371
 30
0.0
 11
42.2774287946
 21
157.4918392297
 31
0.0
  0
LINE
  5
260
330
1F
100
AcDbEntity
  8
0
  6
Continuous
 62
     7
370
    15
100
AcDbLine
 10
71.275072358
 20
107.2610063136
 30
0.0
 11
72.26502017
 21
107.8324910211
 31
0.0
  0
LINE
  5
261
330
1F
100
AcDbEntity
  8
0
  6
Continuous
 62
     7
370
    15
100
AcDbLine
 10
78.2722947819
 20
121.1099915292
 30
0.0
 11
78.2722974161
 21
121.1916322017
 31
0.0
  0
LINE
  5
262
330
1F
100
AcDbEntity
  8
0
  6
Continuous
 62
     7
370
    15
100
AcDbLine
 10
57.8402316326
 20
156.5848401109
 30
0.0
 11
57.7695309528
 21
156.6256680148
 31
0.0
  0
LINE
  5
263
330
1F
100
AcDbEntity
  8
0
  6
Continuous
 62
     7
370
    15
100
AcDbLine
 10
58.5471495274
 20
99.9133328632
 30
0.0
 11
59.2318586673
 21
100.3086070359
 31
0.0
  0
LINE
  5
264
330
1F
100
AcDbEntity
  8
0
  6
Continuous
 62
     7
370
    15
100
AcDbLine
 10
30.2342151039
 20
150.539439952
 30
0.0
 11
29.5495059641
 21
150.1441657792
 31
0.0
  0
LINE
  5
265
330
1F
100
AcDbEntity
  8
0
  6
Continuous
 62
     7
370
    15
100
AcDbLine
 10
70.5535196285
 20
106.8444627893
 30
0.0
 11
71.275072358
 21
107.2610063136
 31
0.0
  0
LINE
  5
266
330
1F
100
AcDbEntity
  8
0
  6
Continuous
 62
     7
370
    15
100
AcDbLine
 10
42.2774287946
 20
157.4918392297
 30
0.0
 11
41.5558760652
 21
157.0752957054
 31
0.0
  0
LINE
  5
267
330
1F
100
AcDbEntity
  8
0
  6
Continuous
 62
     7
370
    15
100
AcDbLine
 10
48.9980750376
 20
110.5661380666
 30
0.0
 11
49.9213722185
 21
111.0991461837
 31
0.0
  0
LINE
  5
268
330
1F
100
AcDbEntity
  8
0
  6
Continuous
 62
     7
370
    15
100
AcDbLine
 10
34.9225910196
 20
137.0806162314
 30
0.0
 11
31.1042146314
 21
134.8763144624
 31
0.0
  0
LINE
  5
269
330
1F
100
AcDbEntity
  8
0
  6
Continuous
 62
     7
370
    15
100
AcDbLine
 10
53.0285827705
 20
117.9668206958
 30
0.0
 11
53.028583429
 21
118.2117430935
 31
0.0
  0
LINE
  5
26A
330
1F
100
AcDbEntity
  8
0
  6
Continuous
 62
     7
370
    15
100
AcDbLine
 10
42.6358034475
 20
136.2145196297
 30
0.0
 11
42.4237053593
 21
136.3369987785
 31
0.0
  0
LINE
  5
26B
330
1F
100
AcDbEntity
  8
0
  6
Continuous
 62
     7
370
    15
100
AcDbLine
 10
30.8920826281
 20
134.7538532636
 30
0.0
 11
26.6494419041
 21
132.3046289068
 31
0.0
  0
LWPOLYLINE
  5
26C
330
1F
100
AcDbEntity
  8
0
  6
Continuous
 62
     7
370
    15
100
AcDbPolyline
 90
       47
 70
   128
 43
0.0
 10
22.128017064
 20
124.6205466243
 10
22.1473591542
 20
125.3487270309
 10
22.2722827219
 20
126.5505072072
 10
22.5118338431
 20
127.664048714
 10
22.8633879506
 20
128.6771600989
 10
23.3230932585
 20
129.5787416403
 10
23.8859132185
 20
130.3589190157
 10
24.5456814668
 20
131.0091332543
 10
25.2951696543
 20
131.5222719241
 10
26.1261655662
 20
131.8927092055
 10
27.0295654833
 20
132.1163803306
 10
27.9954708231
 20
132.1908474673
 10
29.013299434
 20
132.1152780563
 10
30.0718998524
 20
131.8905187774
 10
31.159673134
 20
131.5190130501
 10
32.2647022573
 20
131.0048480048
 10
33.3748798816
 20
130.353650311
 10
34.4780420312
 20
129.5725455052
 10
35.5621037559
 20
128.6701100948
 10
36.6151862299
 20
127.6562130129
 10
37.6257517534
 20
126.5419741863
 10
38.5827301931
 20
125.339600287
 10
39.4756348864
 20
124.0622630691
 10
40.2946851303
 20
122.7239556531
 10
41.0309036459
 20
121.3393389212
 10
41.6762272143
 20
119.923592477
 10
42.2235843847
 20
118.4922176929
 10
42.6669797677
 20
117.0608977932
 10
43.0015519879
 20
115.6453183896
 10
43.2236395378
 20
114.2609895398
 10
43.3308058026
 20
112.9230792079
 10
43.3218785733
 20
111.6462444457
 10
43.1969553143
 20
110.4444640912
 10
42.9574031641
 20
109.3309231784
 10
42.6058497152
 20
108.3178114134
 10
42.1461448189
 20
107.4162296343
 10
41.5833237064
 20
106.6360529242
 10
40.9235556227
 20
105.9858385905
 10
40.1740674353
 20
105.4726999208
 10
39.3430725112
 20
105.1022620691
 10
38.4396719355
 20
104.8785882823
 10
37.4737662664
 20
104.8041274195
 10
36.4559383141
 20
104.8796903666
 10
35.3973385542
 20
105.104455349
 10
34.3095639556
 20
105.4759557529
 10
33.2045354908
 20
105.9901234599
 10
32.7328951338
 20
106.2503681614
  0
LWPOLYLINE
  5
26D
330
1F
100
AcDbEntity
  8
0
  6
Continuous
 62
     7
370
    15
100
AcDbPolyline
 90
       57
 70
   128
 43
0.0
 10
22.1447801499
 20
123.6188253154
 10
22.1403463343
 20
122.4310171298
 10
22.2513570174
 20
121.1834753404
 10
22.4764162494
 20
119.8918865498
 10
22.8126937706
 20
118.572497687
 10
23.2559607374
 20
117.2419007049
 10
23.8006429
 20
115.9168254542
 10
24.4398904075
 20
114.6139351253
 10
25.165664078
 20
113.34961827
 10
25.9688374722
 20
112.1397716989
 10
26.8393098347
 20
110.9996075242
 10
27.7661348385
 20
109.9434662885
 10
28.7376565752
 20
108.9846350366
 10
29.741657727
 20
108.1351613961
 10
30.7655126786
 20
107.4057378114
 10
31.7963462264
 20
106.8055308349
 10
32.8211942631
 20
106.3420883652
 10
33.8271684143
 20
106.021241563
 10
34.8016193569
 20
105.8470257786
 10
35.7322915778
 20
105.8216277136
 10
36.6074814238
 20
105.945370227
 10
37.4161832992
 20
106.2166948582
 10
38.1482279598
 20
106.6321914979
 10
38.7944089531
 20
107.1866318601
 10
39.3465985231
 20
107.8730516236
 10
39.7978556105
 20
108.6828097578
 10
40.1425022445
 20
109.6057269339
 10
40.3762078366
 20
110.6301950402
 10
40.4960300099
 20
111.7433300382
 10
40.5004646486
 20
112.9311438323
 10
40.3894538009
 20
114.178679633
 10
40.1643935811
 20
115.4702689938
 10
39.8281170477
 20
116.7896572864
 10
39.3848494223
 20
118.1202546487
 10
38.8401672597
 20
119.4453298994
 10
38.2009194229
 20
120.7482204184
 10
37.4751467403
 20
122.0125367034
 10
36.6719726875
 20
123.2223836547
 10
35.8015006543
 20
124.3625476393
 10
34.8746756505
 20
125.4186858331
 10
33.9031539138
 20
126.3775231688
 10
32.899152762
 20
127.2269937675
 10
31.8752978104
 20
127.956420394
 10
30.8444642626
 20
128.5566243286
 10
29.8196168844
 20
129.0200664182
 10
28.8136420747
 20
129.3409136005
 10
27.8391917906
 20
129.5151290048
 10
26.9085189112
 20
129.5405304918
 10
26.0333290652
 20
129.4167849365
 10
25.2246268605
 20
129.1454604954
 10
24.4925825292
 20
128.7299636657
 10
23.8464018651
 20
128.1755231133
 10
23.294211472
 20
127.489103825
 10
22.8429550431
 20
126.6793453107
 10
22.4983074213
 20
125.7564287048
 10
22.264602817
 20
124.7319600283
 10
22.1447801499
 20
123.6188253154
  0
LWPOLYLINE
  5
26E
330
1F
100
AcDbEntity
  8
0
  6
Continuous
 62
     7
370
    15
100
AcDbPolyline
 90
       32
 70
   128
 43
0.0
 10
26.6494419041
 20
132.3046289068
 10
26.7093832838
 20
132.3386800747
 10
27.5403791957
 20
132.7091173561
 10
28.4437791129
 20
132.9327884812
 10
29.4096844527
 20
133.0072556179
 10
30.4275130635
 20
132.9316862069
 10
31.4861134819
 20
132.706926928
 10
32.5738867635
 20
132.3354212007
 10
33.6789158868
 20
131.8212561554
 10
34.7890935111
 20
131.1700584616
 10
35.8922556608
 20
130.3889536558
 10
36.9763173855
 20
129.4865182454
 10
38.0293998595
 20
128.4726211635
 10
39.0399653829
 20
127.3583823369
 10
39.9969438227
 20
126.1560084376
 10
40.889848516
 20
124.8786712197
 10
41.7088987598
 20
123.5403638037
 10
42.4451172754
 20
122.1557470718
 10
43.0904408439
 20
120.7400006276
 10
43.6377980142
 20
119.3086258435
 10
44.0811933972
 20
117.8773059438
 10
44.4157656174
 20
116.4617265402
 10
44.6378531673
 20
115.0773976904
 10
44.7450194322
 20
113.7394873585
 10
44.7360922028
 20
112.4626525963
 10
44.6111689438
 20
111.2608722418
 10
44.3716167936
 20
110.147331329
 10
44.0200633447
 20
109.134219564
 10
43.5603584484
 20
108.2326377849
 10
42.9975373359
 20
107.4524610748
 10
42.3377692523
 20
106.8022467411
 10
41.648223103
 20
106.3231588591
  0
LWPOLYLINE
  5
26F
330
1F
100
AcDbEntity
  8
0
  6
Continuous
 62
     7
370
    15
100
AcDbPolyline
 90
       18
 70
   128
 43
0.0
 10
36.9669439922
 20
114.0270788448
 10
36.9266397512
 20
114.4225469454
 10
36.772623313
 20
114.841712567
 10
36.5256954643
 20
115.2279619598
 10
36.219204899
 20
115.5291365823
 10
35.8945450907
 20
115.7045616377
 10
35.5955632499
 20
115.7305368514
 10
35.3626373745
 20
115.6035610388
 10
35.2272261357
 20
115.3407833085
 10
35.2076186315
 20
114.9776870544
 10
35.3064622109
 20
114.5633178184
 10
35.5104068596
 20
114.1536322492
 10
35.791908295
 20
113.8039658866
 10
36.1129500597
 20
113.5615368669
 10
36.4301722663
 20
113.4590965396
 10
36.7007339603
 20
113.5104683817
 10
36.8880911899
 20
113.7087211471
 10
36.9669439922
 20
114.0270788448
  0
LWPOLYLINE
  5
270
330
1F
100
AcDbEntity
  8
0
  6
Continuous
 62
     7
370
    15
100
AcDbPolyline
 90
       18
 70
   128
 43
0.0
 10
31.9145589168
 20
111.7748680592
 10
31.874255993
 20
112.1703353994
 10
31.7202395547
 20
112.5894949374
 10
31.473311706
 20
112.9757504139
 10
31.1668211407
 20
113.2769250364
 10
30.8421613324
 20
113.4523440081
 10
30.5431788331
 20
113.4783256856
 10
30.3102529577
 20
113.351349873
 10
30.1748423774
 20
113.0885656789
 10
30.1552348733
 20
112.7254755084
 10
30.2540777941
 20
112.3111005689
 10
30.4580224428
 20
111.9014210835
 10
30.7395245367
 20
111.5517543407
 10
31.0605663014
 20
111.3093253209
 10
31.377788508
 20
111.2068849937
 10
31.6483495435
 20
111.2582572159
 10
31.8357074316
 20
111.4565096011
 10
31.9145589168
 20
111.7748680592
  0
LWPOLYLINE
  5
271
330
1F
100
AcDbEntity
  8
0
  6
Continuous
 62
     7
370
    15
100
AcDbPolyline
 90
       18
 70
   128
 43
0.0
 10
27.4384101641
 20
120.1932015352
 10
27.3981059231
 20
120.588663552
 10
27.2440901434
 20
121.0078287935
 10
26.9971622947
 20
121.39408427
 10
26.6906717294
 20
121.6952588925
 10
26.3660112626
 20
121.8706782443
 10
26.0670290926
 20
121.8966536481
 10
25.8341035464
 20
121.7696776454
 10
25.6986929662
 20
121.506899535
 10
25.6790851327
 20
121.1438034709
 10
25.7779280535
 20
120.7294346151
 10
25.9818727022
 20
120.3197551297
 10
26.2633751254
 20
119.9700821131
 10
26.5844168902
 20
119.7276591771
 10
26.9016390967
 20
119.6252127661
 10
27.1722001322
 20
119.676591072
 10
27.3595580204
 20
119.8748434573
 10
27.4384101641
 20
120.1932015352
  0
LWPOLYLINE
  5
272
330
1F
100
AcDbEntity
  8
0
  6
Continuous
 62
     7
370
    15
100
AcDbPolyline
 90
       18
 70
   128
 43
0.0
 10
32.490794581
 20
122.445412701
 10
32.45049034
 20
122.8408808015
 10
32.2964739017
 20
123.2600464231
 10
32.049546053
 20
123.6462958159
 10
31.7430554877
 20
123.9474704385
 10
31.4183956795
 20
124.1228894101
 10
31.1194131801
 20
124.1488710877
 10
30.8864879633
 20
124.0218948949
 10
30.751077383
 20
123.7591107008
 10
30.7314692203
 20
123.3960209105
 10
30.8303121411
 20
122.9816459709
 10
31.0342567898
 20
122.5719664855
 10
31.3157588837
 20
122.2222997427
 10
31.6368006484
 20
121.979870723
 10
31.954022855
 20
121.8774303957
 10
32.224584549
 20
121.9288022378
 10
32.4119417787
 20
122.1270550032
 10
32.490794581
 20
122.445412701
  0
LWPOLYLINE
  5
273
330
1F
100
AcDbEntity
  8
0
  6
Continuous
 62
     7
370
    15
100
AcDbPolyline
 90
       33
 70
   128
 43
0.0
 10
31.0794531933
 20
83.7834167505
 10
32.18363016
 20
83.2795019045
 10
33.2938433457
 20
82.638090611
 10
34.3979287747
 20
81.8662110672
 10
35.4837922772
 20
80.972318866
 10
36.5395339539
 20
79.9662084132
 10
37.5535884462
 20
78.8589015332
 10
38.5148461082
 20
77.6625318899
 10
39.4127728619
 20
76.3902058333
 10
40.2375340037
 20
75.0558624858
 10
40.9800903516
 20
73.6741239401
 10
41.6323088811
 20
72.260127968
 10
42.1870417499
 20
70.8293637672
 10
42.6382119094
 20
69.3975115125
 10
42.9808763245
 20
67.9802552871
 10
43.2112799744
 20
66.5931241514
 10
43.3268993166
 20
65.2513164799
 10
43.3264673114
 20
63.9695326619
 10
43.2099892272
 20
62.7618161661
 10
42.9787413232
 20
61.6413984061
 10
42.6352563617
 20
60.6205565324
 10
42.1832972658
 20
59.710473505
 10
41.6278176075
 20
58.9211209781
 10
40.9749010209
 20
58.261148267
 10
40.2317019335
 20
57.7377850033
 10
39.4063639067
 20
57.3567650809
 10
38.5079300737
 20
57.1222629587
 10
37.5462404066
 20
57.0368495445
 10
36.5318355686
 20
57.1014584398
 10
35.4758265229
 20
57.315383457
 10
34.3897838962
 20
57.676280319
 10
33.2856075881
 20
58.1801944313
 10
32.7328951338
 20
58.4827313633
  0
LWPOLYLINE
  5
274
330
1F
100
AcDbEntity
  8
0
  6
Continuous
 62
     7
370
    15
100
AcDbPolyline
 90
       15
 70
   128
 43
0.0
 10
22.128017064
 20
76.8529089038
 10
22.1427696431
 20
77.4901645806
 10
22.2592477594
 20
78.6978802974
 10
22.4904962191
 20
79.8182984971
 10
22.8339814687
 20
80.8391402044
 10
23.285940153
 20
81.749222709
 10
23.8414204698
 20
82.5385756162
 10
24.4943365625
 20
83.1985478519
 10
25.237535156
 20
83.7219121612
 10
26.0628728535
 20
84.1029315132
 10
26.9613080036
 20
84.3374338257
 10
27.922996683
 20
84.4228478102
 10
28.9374021794
 20
84.3582386297
 10
29.9934112252
 20
84.1443138027
 10
31.0794531933
 20
83.7834167505
  0
LWPOLYLINE
  5
275
330
1F
100
AcDbEntity
  8
0
  6
Continuous
 62
     7
370
    15
100
AcDbPolyline
 90
       57
 70
   128
 43
0.0
 10
29.8859283651
 20
81.226532033
 10
28.8783361701
 20
81.5568088034
 10
27.9014545396
 20
81.7406636071
 10
26.9675679631
 20
81.7757835084
 10
26.0884205938
 20
81.6617264493
 10
25.2750687356
 20
81.399930362
 10
24.5377402432
 20
80.9936833071
 10
23.8857080819
 20
80.448096085
 10
23.3271712953
 20
79.7700295058
 10
22.8691540839
 20
78.968011204
 10
22.5174162426
 20
78.0521246023
 10
22.2763812148
 20
77.0338907485
 10
22.1490799516
 20
75.9261136505
 10
22.1371135393
 20
74.742722382
 10
22.2406321262
 20
73.4986007369
 10
22.4583342635
 20
72.2093936912
 10
22.7874822172
 20
70.8913137715
 10
23.2239363765
 20
69.5609363992
 10
23.7622085961
 20
68.2349915281
 10
24.3955292031
 20
66.9301546185
 10
25.1159344187
 20
65.6628338113
 10
25.9143643169
 20
64.4489673684
 10
26.7807783988
 20
63.3038194996
 10
27.7042810456
 20
62.2417913991
 10
28.6732581663
 20
61.2762389373
 10
29.6755247119
 20
60.4193044227
 10
30.698476799
 20
59.6817639527
 10
31.7292497607
 20
59.0728930167
 10
32.7548814654
 20
58.6003478798
 10
33.7624743189
 20
58.2700712995
 10
34.7393566079
 20
58.0862170662
 10
35.6732425259
 20
58.051097355
 10
36.5523902244
 20
58.1651530833
 10
37.3657414241
 20
58.4269506915
 10
38.1030702458
 20
58.8331971761
 10
38.7551017486
 20
59.3787847783
 10
39.3136396876
 20
60.0568506922
 10
39.7716560758
 20
60.8588702298
 10
40.1233939171
 20
61.7747553105
 10
40.3644291096
 20
62.7929890693
 10
40.4917297142
 20
63.9007673079
 10
40.503696785
 20
65.0841574357
 10
40.4001775396
 20
66.328279461
 10
40.1824758962
 20
67.6174869821
 10
39.8533287656
 20
68.935567187
 10
39.4168744417
 20
70.2659438939
 10
38.8786012343
 20
71.5918897155
 10
38.2452816152
 20
72.8967252944
 10
37.5248760703
 20
74.1640466719
 10
36.7264461721
 20
75.3779123543
 10
35.8600320902
 20
76.5230615539
 10
34.9365301019
 20
77.5850883237
 10
33.9675516641
 20
78.5506415458
 10
32.9652851186
 20
79.4075762505
 10
31.94233369
 20
80.1451155799
 10
30.9115600698
 20
80.7539876565
 10
29.8859283651
 20
81.226532033
  0
LWPOLYLINE
  5
276
330
1F
100
AcDbEntity
  8
0
  6
Continuous
 62
     7
370
    15
100
AcDbPolyline
 90
       25
 70
   128
 43
0.0
 10
32.4936668228
 20
84.5998249011
 10
33.5978437895
 20
84.0959100551
 10
34.7080569752
 20
83.4544987616
 10
35.8121424043
 20
82.6826192178
 10
36.8980059068
 20
81.7887270166
 10
37.9537475835
 20
80.7826165638
 10
38.9678020757
 20
79.6753096838
 10
39.9290597377
 20
78.4789400405
 10
40.8269864914
 20
77.2066139839
 10
41.6517476332
 20
75.8722706364
 10
42.3943039812
 20
74.4905320907
 10
43.0465225106
 20
73.0765361186
 10
43.6012553794
 20
71.6457719178
 10
44.052425539
 20
70.2139196631
 10
44.3950899541
 20
68.7966634377
 10
44.625493604
 20
67.409532302
 10
44.7411129462
 20
66.0677246305
 10
44.740680941
 20
64.7859408125
 10
44.6242028567
 20
63.5782243167
 10
44.3929549528
 20
62.4578065567
 10
44.0494699912
 20
61.436964683
 10
43.5975108954
 20
60.5268816556
 10
43.0420312371
 20
59.7375291287
 10
42.3891146505
 20
59.0775564176
 10
41.648223103
 20
58.5555234201
  0
ARC
  5
277
330
1F
100
AcDbEntity
  8
0
  6
Continuous
 62
     7
370
    15
100
AcDbCircle
 10
29.6363919545
 20
78.5380184566
 30
0.0
 40
6.701456337515213
100
AcDbArc
 50
64.7628261637
 51
116.4691930369
  0
LWPOLYLINE
  5
278
330
1F
100
AcDbEntity
  8
0
  6
Continuous
 62
     7
370
    15
100
AcDbPolyline
 90
       18
 70
   128
 43
0.0
 10
36.1728328289
 20
66.9641172298
 10
36.4789032428
 20
66.9130436035
 10
36.7250079109
 20
67.0157816586
 10
36.8779100918
 20
67.2584543912
 10
36.9169604641
 20
67.608288476
 10
36.836882769
 20
68.0180373794
 10
36.6484942587
 20
68.4323609505
 10
36.3772358246
 20
68.7953036749
 10
36.0597436147
 20
69.0578465107
 10
35.7388967792
 20
69.1845330967
 10
35.4580275465
 20
69.1582540419
 10
35.2550680804
 20
68.9825566628
 10
35.1574296375
 20
68.6811714945
 10
35.178298913
 20
68.2948012693
 10
35.3148560192
 20
67.8756286861
 10
35.5486617101
 20
67.4802631538
 10
35.8481348251
 20
67.1621036946
 10
36.1728328289
 20
66.9641172298
  0
LWPOLYLINE
  5
279
330
1F
100
AcDbEntity
  8
0
  6
Continuous
 62
     7
370
    15
100
AcDbPolyline
 90
       18
 70
   128
 43
0.0
 10
30.7135113701
 20
74.6997479489
 10
31.0195811254
 20
74.6486754632
 10
31.2656857935
 20
74.7514135183
 10
31.418588633
 20
74.9940858707
 10
31.4576383467
 20
75.3439203357
 10
31.3775613102
 20
75.753668859
 10
31.1891721413
 20
76.1679928102
 10
30.9179143657
 20
76.5309336336
 10
30.6004221559
 20
76.7934779903
 10
30.2795753204
 20
76.9201645762
 10
29.9987054292
 20
76.8938859017
 10
29.7957459631
 20
76.7181885225
 10
29.6981075201
 20
76.4168033542
 10
29.7189767956
 20
76.030433129
 10
29.8555345604
 20
75.6112594052
 10
30.0893389342
 20
75.2158953937
 10
30.3888133662
 20
74.8977351742
 10
30.7135113701
 20
74.6997479489
  0
LWPOLYLINE
  5
27A
330
1F
100
AcDbEntity
  8
0
  6
Continuous
 62
     7
370
    15
100
AcDbPolyline
 90
       18
 70
   128
 43
0.0
 10
26.7438380032
 20
70.6871686853
 10
27.0499077585
 20
70.6360954392
 10
27.2960130852
 20
70.7388331141
 10
27.4489152661
 20
70.9815058467
 10
27.4879649798
 20
71.3313403117
 10
27.4078879433
 20
71.7410888349
 10
27.2194987744
 20
72.1554120257
 10
26.9482409988
 20
72.51835437
 10
26.6307494476
 20
72.7808975861
 10
26.309902612
 20
72.9075849325
 10
26.0290323915
 20
72.8813056875
 10
25.8260729254
 20
72.7056083084
 10
25.7284344825
 20
72.4042231401
 10
25.7493034287
 20
72.017853105
 10
25.8858615228
 20
71.5986799516
 10
26.1196662258
 20
71.2033149895
 10
26.4191399994
 20
70.8851551501
 10
26.7438380032
 20
70.6871686853
  0
LWPOLYLINE
  5
27B
330
1F
100
AcDbEntity
  8
0
  6
Continuous
 62
     7
370
    15
100
AcDbPolyline
 90
       18
 70
   128
 43
0.0
 10
32.203159462
 20
62.951537586
 10
32.5092298759
 20
62.9004639597
 10
32.755334544
 20
63.0032016345
 10
32.9082367249
 20
63.2458751276
 10
32.9472870972
 20
63.595708452
 10
32.8672094021
 20
64.0054573554
 10
32.6788208918
 20
64.4197809264
 10
32.4075624577
 20
64.7827236509
 10
32.0900715649
 20
65.0452664868
 10
31.7692247294
 20
65.1719530728
 10
31.4883541796
 20
65.1456740179
 10
31.2853947135
 20
64.9699773992
 10
31.1877562706
 20
64.6685914705
 10
31.2086255461
 20
64.2822212453
 10
31.3451833109
 20
63.8630486622
 10
31.5789876846
 20
63.4676838902
 10
31.8784614582
 20
63.1495236706
 10
32.203159462
 20
62.951537586
  0
LWPOLYLINE
  5
27C
330
1F
100
AcDbEntity
  8
0
  6
Continuous
 62
     7
370
    15
100
AcDbPolyline
 90
       16
 70
   128
 43
0.0
 10
63.9029945463
 20
84.2960336367
 10
63.8013258109
 20
84.9226105379
 10
63.556895163
 20
85.8629227811
 10
63.2046094126
 20
86.80987211
 10
62.7535933525
 20
87.7389298899
 10
62.2155282452
 20
88.6260369313
 10
61.6043502095
 20
89.4482171559
 10
60.9358853871
 20
90.1841760456
 10
60.2274508642
 20
90.8148519417
 10
59.4973917154
 20
91.3239114425
 10
58.7646173876
 20
91.6981706562
 10
58.0481058164
 20
91.9279347012
 10
57.366414786
 20
92.0072554572
 10
56.7371992162
 20
91.9340763881
 10
56.176756108
 20
91.7102944767
 10
56.1678071467
 20
91.7051563299
  0
ARC
  5
27D
330
1F
100
AcDbEntity
  8
0
  6
Continuous
 62
     7
370
    15
100
AcDbCircle
 10
54.5262016812
 20
83.2878298433
 30
0.0
 40
9.455164772371536
100
AcDbArc
 50
6.2021143512
 51
57.5077273237
  0
LINE
  5
27E
330
1F
100
AcDbEntity
  8
0
  6
Continuous
 62
     7
370
    15
100
AcDbLine
 10
59.6046778354
 20
49.5012462607
 30
0.0
 11
59.6046778354
 21
45.4185422926
 31
0.0
  0
LWPOLYLINE
  5
27F
330
1F
100
AcDbEntity
  8
0
  6
Continuous
 62
     7
370
    15
100
AcDbPolyline
 90
       31
 70
   128
 43
0.0
 10
59.6046778354
 20
49.5012462607
 10
60.7714731652
 20
48.8947551515
 10
62.0416938978
 20
48.3619939546
 10
63.4014200487
 20
47.9088015055
 10
64.8357602801
 20
47.5401395886
 10
66.3289915127
 20
47.2600518782
 10
67.8647627449
 20
47.0716021618
 10
69.4262382863
 20
46.9768597025
 10
70.9963183703
 20
46.9768593224
 10
72.5577945702
 20
47.0716029221
 10
74.0935631682
 20
47.2600518782
 10
75.5867963765
 20
47.5401407291
 10
77.0211366079
 20
47.9088011253
 10
78.3808637466
 20
48.3619945248
 10
79.651085467
 20
48.8947551515
 10
80.8178788212
 20
49.5012474013
 10
81.8684693628
 20
50.1748236275
 10
82.7913365141
 20
50.908106258
 10
83.5763768853
 20
51.6930607873
 10
84.2149832998
 20
52.5210870175
 10
84.700164649
 20
53.3831125801
 10
85.0266025274
 20
54.2696925401
 10
85.1907223555
 20
55.1711143234
 10
85.1907210384
 20
56.0775018827
 10
85.0266038445
 20
56.9789221453
 10
84.7001633319
 20
57.8655036261
 10
84.2149846169
 20
58.727527668
 10
83.5763755683
 20
59.5555554189
 10
82.7913378312
 20
60.3405084275
 10
81.8684693628
 20
61.0737918183
 10
80.8178801383
 20
61.7473672842
  0
LWPOLYLINE
  5
280
330
1F
100
AcDbEntity
  8
0
  6
Continuous
 62
     7
370
    15
100
AcDbPolyline
 90
       24
 70
   128
 43
0.0
 10
59.6046778354
 20
45.4185422926
 10
60.7714731652
 20
44.8120511833
 10
62.0416938978
 20
44.2792899864
 10
63.4014200487
 20
43.8260975373
 10
64.8357602801
 20
43.4574356204
 10
66.3289915127
 20
43.1773479101
 10
67.8647627449
 20
42.9888981936
 10
69.4262382863
 20
42.8941557344
 10
70.9963183703
 20
42.8941553542
 10
72.5577945702
 20
42.9888989539
 10
74.0935631682
 20
43.1773479101
 10
75.5867963765
 20
43.4574367609
 10
77.0211366079
 20
43.8260971572
 10
78.3808637466
 20
44.2792905567
 10
79.651085467
 20
44.8120511833
 10
80.8178788212
 20
45.4185434331
 10
81.8684693628
 20
46.0921196593
 10
82.7913365141
 20
46.8254022898
 10
83.5763768853
 20
47.6103568191
 10
84.2149832998
 20
48.4383830493
 10
84.700164649
 20
49.3004086119
 10
85.0266025274
 20
50.1869885719
 10
85.1907223555
 20
51.0884103552
 10
85.2112781638
 20
51.5416052754
  0
LINE
  5
281
330
1F
100
AcDbEntity
  8
0
  6
Continuous
 62
     7
370
    15
100
AcDbLine
 10
17.1782699369
 20
73.9934902085
 30
0.0
 11
22.8356028876
 21
70.7275814128
 31
0.0
  0
LINE
  5
282
330
1F
100
AcDbEntity
  8
0
  6
Continuous
 62
     7
370
    15
100
AcDbLine
 10
48.998074379
 20
55.6243081031
 30
0.0
 11
59.6046778354
 21
49.5012462607
 31
0.0
  0
LWPOLYLINE
  5
283
330
1F
100
AcDbEntity
  8
0
  6
Continuous
 62
     7
370
    15
100
AcDbPolyline
 90
       21
 70
   128
 43
0.0
 10
23.5422306936
 20
88.4222750749
 10
22.4093523816
 20
88.2007182843
 10
20.9750147843
 20
87.832057888
 10
19.6152850115
 20
87.3788644885
 10
18.3450659252
 20
86.8461038618
 10
17.1782699369
 20
86.2396116121
 10
16.1276820295
 20
85.5660353859
 10
15.204812244
 20
84.8327527554
 10
14.4197745069
 20
84.0477982261
 10
13.7811654583
 20
83.2197719959
 10
13.2959847676
 20
82.3577468135
 10
12.9695462307
 20
81.4711664732
 10
12.8054290367
 20
80.5697446899
 10
12.8054283782
 20
79.6633575108
 10
12.9695462307
 20
78.7619361077
 10
13.2959834505
 20
77.8753557675
 10
13.7811647997
 20
77.0133302049
 10
14.4197738483
 20
76.1853039747
 10
15.2048125732
 20
75.4003500156
 10
16.1276820295
 20
74.6670671951
 10
17.1782699369
 20
73.9934902085
  0
LINE
  5
284
330
1F
100
AcDbEntity
  8
0
  6
Continuous
 62
     7
370
    15
100
AcDbLine
 10
80.8178801383
 20
61.7473672842
 30
0.0
 11
70.2112766819
 21
67.8704291265
 31
0.0
  0
LWPOLYLINE
  5
285
330
1F
100
AcDbEntity
  8
0
  6
Continuous
 62
     7
370
    15
100
AcDbPolyline
 90
       12
 70
   128
 43
0.0
 10
23.5422306936
 20
83.2248601865
 10
22.937653908
 20
82.9147900164
 10
22.2545377874
 20
82.4548470849
 10
21.7010469335
 20
81.940095855
 10
21.2901559903
 20
81.382602151
 10
21.0314968297
 20
80.7954339247
 10
20.9311293783
 20
80.1923525571
 10
20.9914079328
 20
79.587495417
 10
21.2109205736
 20
78.9950382705
 10
21.5845207755
 20
78.4288683348
 10
22.1034505551
 20
77.9022569522
 10
22.1647887076
 20
77.8506915009
  0
LWPOLYLINE
  5
286
330
1F
100
AcDbEntity
  8
0
  6
Continuous
 62
     7
370
    15
100
AcDbPolyline
 90
       42
 70
   128
 43
0.0
 10
65.3640598309
 20
58.4225472091
 10
64.6809450273
 20
57.9626035173
 10
64.1274541735
 20
57.4478522874
 10
63.7165632302
 20
56.8903585835
 10
63.4579027526
 20
56.3031911175
 10
63.3575366183
 20
55.7001089895
 10
63.4178151727
 20
55.0952518495
 10
63.6373264965
 20
54.5027954633
 10
64.0109266984
 20
53.9366255276
 10
64.5298577951
 20
53.4100133847
 10
65.1819571279
 20
52.9353020027
 10
65.9519372448
 20
52.5236204681
 10
66.8217560019
 20
52.184614065
 10
67.7710195927
 20
51.9262329013
 10
68.7774823839
 20
51.7545307985
 10
69.8175513599
 20
51.6735337533
 10
70.86684852
 20
51.6851388121
 10
71.9007805197
 20
51.789074914
 10
72.8951116039
 20
51.9829051716
 10
73.8265358826
 20
52.2620865574
 10
74.6732212882
 20
52.6200771122
 10
75.4153232404
 20
53.0484834504
 10
76.0354469447
 20
53.5372637707
 10
76.5190556896
 20
54.0749635615
 10
76.8548172412
 20
54.6489794385
 10
77.0348580413
 20
55.2458549167
 10
77.054962088
 20
55.8516020339
 10
76.9146552293
 20
56.4520206933
 10
76.6172262365
 20
57.0330392953
 10
76.1696477787
 20
57.5810371217
 10
75.5824078359
 20
58.0831728019
 10
74.8692778907
 20
58.5276732421
 10
74.0469639003
 20
58.9041217938
 10
73.1347467308
 20
59.2036947195
 10
72.154005371
 20
59.4193695253
 10
71.1277296097
 20
59.5460907152
 10
70.0799721267
 20
59.5808884038
 10
69.0352913635
 20
59.5229490281
 10
68.0181759564
 20
59.3736267524
 10
67.0524638994
 20
59.1364244599
 10
66.1607933185
 20
58.8169017515
 10
65.3640598309
 20
58.4225472091
  0
LINE
  5
287
330
1F
100
AcDbEntity
  8
0
  6
Continuous
 62
     7
370
    15
100
AcDbLine
 10
17.1782699369
 20
73.9934902085
 30
0.0
 11
17.1782699369
 21
69.9107862403
 31
0.0
  0
LINE
  5
288
330
1F
100
AcDbEntity
  8
0
  6
Continuous
 62
     7
370
    15
100
AcDbLine
 10
17.1782699369
 20
69.9107862403
 30
0.0
 11
23.5422306936
 21
66.2369498953
 31
0.0
  0
LINE
  5
289
330
1F
100
AcDbEntity
  8
0
  6
Continuous
 62
     7
370
    15
100
AcDbLine
 10
45.4619656428
 20
53.5829562569
 30
0.0
 11
59.6046778354
 21
45.4185422926
 31
0.0
  0
LWPOLYLINE
  5
28A
330
1F
100
AcDbEntity
  8
0
  6
Continuous
 62
     7
370
    15
100
AcDbPolyline
 90
        6
 70
   128
 43
0.0
 10
67.8778269508
 20
54.0685777036
 10
67.4170881396
 20
53.7350533469
 10
67.0964638921
 20
53.3507033491
 10
66.9320266456
 20
52.9348030718
 10
66.9320279626
 20
52.5082078619
 10
67.0914813444
 20
52.1005876797
  0
LWPOLYLINE
  5
28B
330
1F
100
AcDbEntity
  8
0
  6
Continuous
 62
     7
370
    15
100
AcDbPolyline
 90
       13
 70
   128
 43
0.0
 10
73.3490555529
 20
52.1315547789
 10
73.4905293525
 20
52.5082071016
 10
73.4905293525
 20
52.9348030718
 10
73.326093423
 20
53.3507025887
 10
73.0054691755
 20
53.7350525866
 10
72.5447316814
 20
54.0685777036
 10
71.9669839991
 20
54.3345573181
 10
71.3011981357
 20
54.5196497564
 10
70.5807609807
 20
54.6145765979
 10
69.8417950174
 20
54.6145765979
 10
69.1213578623
 20
54.5196497564
 10
68.455571999
 20
54.3345573181
 10
67.8778269508
 20
54.0685777036
  0
ARC
  5
28C
330
1F
100
AcDbEntity
  8
0
  6
Continuous
 62
     7
370
    15
100
AcDbCircle
 10
68.7949531441
 20
51.1085722199
 30
0.0
 40
2.002471284458612
100
AcDbArc
 50
117.2579442551
 51
149.2788903237
  0
ARC
  5
28D
330
1F
100
AcDbEntity
  8
0
  6
Continuous
 62
     7
370
    15
100
AcDbCircle
 10
70.1591795427
 20
49.2593097461
 30
0.0
 40
4.286825369779586
100
AcDbArc
 50
41.6731550342
 51
122.1527073436
  0
ARC
  5
28E
330
1F
100
AcDbEntity
  8
0
  6
Continuous
 62
     7
370
    15
100
AcDbCircle
 10
20.2143096886
 20
76.7268953545
 30
0.0
 40
7.46169423330653
100
AcDbArc
 50
185.3293584898
 51
245.9907934112
  0
LWPOLYLINE
  5
28F
330
1F
100
AcDbEntity
  8
0
  6
Continuous
 62
     7
370
    15
100
AcDbPolyline
 90
       54
 70
   128
 43
0.0
 10
60.7833210394
 20
102.5426205099
 10
61.4842916188
 20
103.706085001
 10
62.081820661
 20
104.9853689307
 10
62.5725653942
 20
106.3733160295
 10
62.9537862732
 20
107.8621723608
 10
63.2233469795
 20
109.4436015297
 10
63.3797407635
 20
111.108769858
 10
63.422095712
 20
112.8483615936
 10
63.350172115
 20
114.6526412678
 10
63.1643730017
 20
116.5115267016
 10
62.8657388724
 20
118.4146163812
 10
62.4559371618
 20
120.351274629
 10
61.937262239
 20
122.310668106
 10
61.3126116997
 20
124.2818342509
 10
60.5854810983
 20
126.2537573265
 10
59.7599376057
 20
128.2154018768
 10
58.8405963016
 20
130.1557994181
 10
57.8325964676
 20
132.0641047109
 10
56.7415805129
 20
133.9296383438
 10
55.5736465596
 20
135.7419749428
 10
54.3353273693
 20
137.4909675041
 10
53.033546879
 20
139.1668454896
 10
51.6755859567
 20
140.7602345961
 10
50.2690376206
 20
142.2622191085
 10
48.8217701604
 20
143.6644057759
 10
47.3418757712
 20
144.9589473804
 10
45.8376297232
 20
146.1386088943
 10
44.317446898
 20
147.1967925704
 10
42.7898271298
 20
148.1275816646
 10
41.2633130577
 20
148.9257647655
 10
39.74644337
 20
149.5868810388
 10
38.2476988028
 20
150.1072331491
 10
36.7754629569
 20
150.4839159643
 10
35.337967968
 20
150.7148114171
 10
33.9432531828
 20
150.7986427792
 10
32.5991183407
 20
150.7349347684
 10
31.3130805832
 20
150.5240383663
 10
30.0923318543
 20
150.1671371598
 10
28.9436990174
 20
149.6662338625
 10
27.8736056802
 20
149.0241175994
 10
26.8880365307
 20
148.2443905795
 10
25.9925029277
 20
147.3314027873
 10
25.1920131023
 20
146.2902691861
 10
24.49104384
 20
145.1268069764
 10
23.8935154563
 20
143.8475196247
 10
23.4027687475
 20
142.4595736664
 10
23.0215491856
 20
140.9707165748
 10
22.7519878207
 20
139.3892877861
 10
22.5955933782
 20
137.7241198379
 10
22.5532390882
 20
135.9845277222
 10
22.6251626852
 20
134.180248048
 10
22.81096114
 20
132.3213629943
 10
23.1095965863
 20
130.4182725544
 10
23.2869972815
 20
129.5186406874
  0
ARC
  5
290
330
1F
100
AcDbEntity
  8
0
  6
Continuous
 62
     7
370
    15
100
AcDbCircle
 10
51.9896157554
 20
108.7057174885
 30
0.0
 40
10.73838986951874
100
AcDbArc
 50
253.8243007986
 51
324.9751822447
  0
ARC
  5
291
330
1F
100
AcDbEntity
  8
0
  6
Continuous
 62
     7
370
    15
100
AcDbCircle
 10
52.0225806051
 20
108.8743455554
 30
0.0
 40
10.93706711790278
100
AcDbArc
 50
253.9463561037
 51
324.4008094088
  0
LWPOLYLINE
  5
292
330
1F
100
AcDbEntity
  8
0
  6
Continuous
 62
     7
370
    15
100
AcDbPolyline
 90
       51
 70
   128
 43
0.0
 10
22.5522809059
 20
136.2951828452
 10
22.5957428678
 20
137.8109852847
 10
22.7526792925
 20
139.481911889
 10
23.0231724978
 20
141.0688195201
 10
23.4057117829
 20
142.5628281111
 10
23.8981562194
 20
143.9555795937
 10
24.4977524329
 20
145.2392884707
 10
25.2011471146
 20
146.4067771787
 10
26.0044067782
 20
147.4515133526
 10
26.9030388331
 20
148.3676584972
 10
27.8920185847
 20
149.1500889025
 10
28.9658145883
 20
149.7944235932
 10
30.118421906
 20
150.2970598831
 10
31.3433946217
 20
150.6551971906
 10
32.6338823702
 20
150.8668220346
 10
33.9826680594
 20
150.9307531786
 10
35.3822089881
 20
150.8466300615
 10
36.8246779636
 20
150.6149316464
 10
38.3020083098
 20
150.2369504386
 10
39.8059382565
 20
149.7147972783
 10
41.3280572025
 20
149.0513868008
 10
42.8598528015
 20
148.250446757
 10
44.392759365
 20
147.3164414009
 10
45.9182026437
 20
146.2545943081
 10
47.4276525105
 20
145.0708518782
 10
48.9126677418
 20
143.771827065
 10
50.3649440914
 20
142.3647898748
 10
51.7763577544
 20
140.8576057737
 10
53.1390180503
 20
139.2587052731
 10
54.4453029851
 20
137.5770268993
 10
55.687907983
 20
135.8219829765
 10
56.8598827654
 20
134.0033775006
 10
57.9546734972
 20
132.1313878919
 10
58.966160983
 20
130.2164821085
 10
59.8886817399
 20
128.2693699782
 10
60.7170833157
 20
126.3009347624
 10
61.4467295572
 20
124.322187529
 10
62.0735401224
 20
122.3442017555
 10
62.5940115546
 20
120.3780281599
 10
63.005230453
 20
118.4346749298
 10
63.3048998143
 20
116.524995176
 10
63.491341667
 20
114.6596793283
 10
63.5635128768
 20
112.849154756
 10
63.5210130484
 20
111.1035447035
 10
63.3640766238
 20
109.4326180993
 10
63.0935834184
 20
107.8457104682
 10
62.7110428162
 20
106.3517026375
 10
62.2185990382
 20
104.9589507747
 10
61.6190021663
 20
103.6752422779
 10
60.9156081431
 20
102.5077531897
 10
60.9156081431
 20
102.5077531897
  0
LWPOLYLINE
  5
293
330
1F
100
AcDbEntity
  8
0
  6
Continuous
 62
     7
370
    15
100
AcDbPolyline
 90
       40
 70
   128
 43
0.0
 10
61.9055579307
 20
103.0792390377
 10
62.6089519539
 20
104.2467281259
 10
63.2085488259
 20
105.5304366227
 10
63.7009926039
 20
106.9231884855
 10
64.083533206
 20
108.4171963161
 10
64.3540264114
 20
110.0041039473
 10
64.510962836
 20
111.6750305515
 10
64.5534626644
 20
113.420640604
 10
64.4812914547
 20
115.2311651763
 10
64.2948496019
 20
117.096481024
 10
63.9951802407
 20
119.0061607778
 10
63.5839613423
 20
120.9495140079
 10
63.06348991
 20
122.9156876035
 10
62.4366793448
 20
124.893673377
 10
61.7070331034
 20
126.8724206104
 10
60.8786315275
 20
128.8408558261
 10
59.9561107706
 20
130.7879679564
 10
58.9446232848
 20
132.7028737399
 10
57.849832553
 20
134.5748633486
 10
56.6778577706
 20
136.3934688245
 10
55.4352527727
 20
138.1485127473
 10
54.1289678379
 20
139.8301911211
 10
52.766307542
 20
141.4290916216
 10
51.3548938791
 20
142.9362757228
 10
49.9026175294
 20
144.343312913
 10
48.4176022981
 20
145.6423377262
 10
46.9081524314
 20
146.8260801561
 10
45.3827091527
 20
147.8879272489
 10
43.8498025891
 20
148.8219326049
 10
42.3180069901
 20
149.6228726488
 10
40.7958880441
 20
150.2862831263
 10
39.2919580974
 20
150.8084362866
 10
37.8146277513
 20
151.1864174944
 10
36.3721587757
 20
151.4181159095
 10
34.9726178471
 20
151.5022390266
 10
33.6238321578
 20
151.4383078826
 10
32.3333444093
 20
151.2266830386
 10
31.1083716936
 20
150.8685457311
 10
29.955764376
 20
150.3659094411
 10
29.5495059641
 20
150.1441657792
  0
ARC
  5
294
330
1F
100
AcDbEntity
  8
0
  6
Continuous
 62
     7
370
    15
100
AcDbCircle
 10
53.3635169197
 20
108.7764160429
 30
0.0
 40
10.26763314799013
100
AcDbArc
 50
300.3215119814
 51
326.2984038305
  0
LWPOLYLINE
  5
295
330
1F
100
AcDbEntity
  8
0
  6
Continuous
 62
     7
370
    15
100
AcDbPolyline
 90
       17
 70
   128
 43
0.0
 10
75.8702457865
 20
129.9889280401
 10
76.3756813306
 20
128.0252777705
 10
76.7715087267
 20
126.0859550704
 10
77.0555126312
 20
124.1818145792
 10
77.2261099031
 20
122.3234980662
 10
77.2823417016
 20
120.5214024898
 10
77.2238945594
 20
118.785606996
 10
77.0510977489
 20
117.1258136012
 10
76.7649153791
 20
115.5513152523
 10
76.3669463962
 20
114.0709045713
 10
75.8594193148
 20
112.6928647293
 10
75.2451737788
 20
111.4249040444
 10
74.527639488
 20
110.2741133945
 10
73.7108335638
 20
109.2469251517
 10
72.7993210369
 20
108.3490903646
 10
71.79820431
 20
107.5856240045
 10
71.275072358
 20
107.2610063136
  0
LWPOLYLINE
  5
296
330
1F
100
AcDbEntity
  8
0
  6
Continuous
 62
     7
370
    15
100
AcDbPolyline
 90
       28
 70
   128
 43
0.0
 10
42.2774287946
 20
157.4918392297
 10
42.8394254094
 20
157.7920497086
 10
44.0024935419
 20
158.2747397533
 10
45.2369976192
 20
158.6125974079
 10
46.5360339134
 20
158.8037312526
 10
47.8923376496
 20
158.8470727494
 10
49.298323918
 20
158.7423769592
 10
50.7461297383
 20
158.4902347606
 10
52.2276583057
 20
158.0920533907
 10
53.7346248011
 20
157.5500604187
 10
55.2586008426
 20
156.8672902512
 10
56.7910642057
 20
156.0475493459
 10
58.3234445922
 20
155.095432376
 10
59.847173021
 20
154.0162632986
 10
61.3537279261
 20
152.8160748266
 10
62.834682572
 20
151.5015810567
 10
64.28175642
 20
150.0801295647
 10
65.6868572753
 20
148.5596709914
 10
67.0421247506
 20
146.9487096162
 10
68.3399816327
 20
145.2562554529
 10
69.5731720784
 20
143.4917717813
 10
70.7347945411
 20
141.6651257203
 10
71.818355772
 20
139.7865327191
 10
72.8177945274
 20
137.8665002852
 10
73.7275237158
 20
135.9157671512
 10
74.5424541052
 20
133.9452348357
 10
75.2580285676
 20
131.9659357067
 10
75.8702457865
 20
129.9889280401
  0
LWPOLYLINE
  5
297
330
1F
100
AcDbEntity
  8
0
  6
Continuous
 62
     7
370
    15
100
AcDbPolyline
 90
       28
 70
   128
 43
0.0
 10
76.8601935985
 20
130.5604127476
 10
76.2479763796
 20
132.5374204142
 10
75.5324019172
 20
134.5167195432
 10
74.7174715278
 20
136.4872518587
 10
73.8077423394
 20
138.4379849926
 10
72.808303584
 20
140.3580174265
 10
71.7247423531
 20
142.2366104278
 10
70.5631198904
 20
144.0632564888
 10
69.3299294447
 20
145.8277401604
 10
68.0320725626
 20
147.5201943237
 10
66.6768050873
 20
149.1311556989
 10
65.271704232
 20
150.6516142722
 10
63.824630384
 20
152.0730657641
 10
62.3436757381
 20
153.3875595341
 10
60.837120833
 20
154.5877480061
 10
59.3133924042
 20
155.6669170835
 10
57.7810120177
 20
156.6190340534
 10
56.2485486546
 20
157.4387749587
 10
54.7245726131
 20
158.1215451262
 10
53.2176061177
 20
158.6635380982
 10
51.7360775503
 20
159.061719468
 10
50.28827173
 20
159.3138616667
 10
48.8822854616
 20
159.4185574569
 10
47.5259817254
 20
159.3752159601
 10
46.2269454312
 20
159.1840821154
 10
44.9924413539
 20
158.8462244607
 10
43.8293732214
 20
158.363534416
 10
43.2673766066
 20
158.0633239371
  0
LWPOLYLINE
  5
298
330
1F
100
AcDbEntity
  8
0
  6
Continuous
 62
     7
370
    15
100
AcDbPolyline
 90
       17
 70
   128
 43
0.0
 10
72.26502017
 20
107.8324910211
 10
72.788152122
 20
108.157108712
 10
73.7892688489
 20
108.9205750721
 10
74.7007813758
 20
109.8184098591
 10
75.5175873
 20
110.845598102
 10
76.2351215908
 20
111.9963887518
 10
76.8493671268
 20
113.2643494367
 10
77.3568942082
 20
114.6423892788
 10
77.7548631911
 20
116.1227999598
 10
78.0410455609
 20
117.6972983086
 10
78.2138423714
 20
119.3570917035
 10
78.2722895136
 20
121.0928871973
 10
78.2160577151
 20
122.8949827736
 10
78.0454604432
 20
124.7532992867
 10
77.7614565387
 20
126.6574397779
 10
77.3656291426
 20
128.596762478
 10
76.8601935985
 20
130.5604127476
  0
ARC
  5
299
330
1F
100
AcDbEntity
  8
0
  6
Continuous
 62
     7
370
    15
100
AcDbCircle
 10
43.6290978864
 20
120.8292264576
 30
0.0
 40
34.6450950579801
100
AcDbArc
 50
0.599354635
 51
16.3974080755
  0
ARC
  5
29A
330
1F
100
AcDbEntity
  8
0
  6
Continuous
 62
     7
370
    15
100
AcDbCircle
 10
33.5636527197
 20
118.8494818528
 30
0.0
 40
44.86991805856915
100
AcDbArc
 50
15.1941524317
 51
57.2452951721
  0
LWPOLYLINE
  5
29B
330
1F
100
AcDbEntity
  8
0
  6
Continuous
 62
     7
370
    15
100
AcDbPolyline
 90
       44
 70
   128
 43
0.0
 10
29.5495059641
 20
150.1441657792
 10
30.5308624044
 20
150.6387298464
 10
31.7210021492
 20
151.0683830914
 10
32.9800814201
 20
151.3524123793
 10
34.3010587709
 20
151.4892308899
 10
35.676546773
 20
151.4780659892
 10
37.0988530914
 20
151.3189902685
 10
38.5600237431
 20
151.0128904893
 10
40.0518875081
 20
150.5614723637
 10
41.5661006272
 20
149.9672651686
 10
43.0941952061
 20
149.2335938039
 10
44.6276259711
 20
148.3645639673
 10
46.1578173557
 20
147.3650228052
 10
47.6762115739
 20
146.2405737458
 10
49.1743160359
 20
144.9974943738
 10
50.6437553725
 20
143.6427428993
 10
52.0763096312
 20
142.1838996055
 10
53.4639682767
 20
140.6291113402
 10
54.7989710203
 20
138.9870801125
 10
56.0738512846
 20
137.2669954159
 10
57.2814796666
 20
135.4784604673
 10
58.4151060852
 20
133.6314922108
 10
59.4683848055
 20
131.7364095327
 10
60.4354284395
 20
129.8038203376
 10
61.3108290198
 20
127.8445242122
 10
62.0896896094
 20
125.8694820091
 10
62.767655912
 20
123.8897367618
 10
63.3409373454
 20
121.9163589334
 10
63.8063254808
 20
119.9603931858
 10
64.1612203846
 20
118.0327640851
 10
64.4036358863
 20
116.144266976
 10
64.5322153844
 20
114.3054493516
 10
64.5462397482
 20
112.5266062909
 10
64.4456325867
 20
110.8176739951
 10
64.2309549796
 20
109.1882206607
 10
63.9034081122
 20
107.6473537041
 10
63.4648253724
 20
106.203687821
 10
62.9176539116
 20
104.8653039197
 10
62.2649599131
 20
103.639679159
 10
61.5103917133
 20
102.5336686938
 10
60.6581666313
 20
101.5534646086
 10
59.7130551636
 20
100.7045381211
 10
58.6803388371
 20
99.9916456619
 10
58.5471495274
 20
99.9133328632
  0
LWPOLYLINE
  5
29C
330
1F
100
AcDbEntity
  8
0
  6
Continuous
 62
     7
370
    15
100
AcDbPolyline
 90
       44
 70
   128
 43
0.0
 10
59.2318586673
 20
100.3086070359
 10
59.3650479769
 20
100.3869198346
 10
60.3977643034
 20
101.0998122939
 10
61.3428757712
 20
101.9487387814
 10
62.1951008531
 20
102.9289428665
 10
62.9496690529
 20
104.0349533318
 10
63.6023630515
 20
105.2605780925
 10
64.1495345123
 20
106.5989619938
 10
64.588117252
 20
108.0426278769
 10
64.9156641194
 20
109.5834948335
 10
65.1303417265
 20
111.2129481678
 10
65.2309488881
 20
112.9218804637
 10
65.2169245242
 20
114.7007235244
 10
65.0883450261
 20
116.5395411488
 10
64.8459295244
 20
118.4280382579
 10
64.4910346207
 20
120.3556673586
 10
64.0256464852
 20
122.3116331061
 10
63.4523650518
 20
124.2850109345
 10
62.7743987492
 20
126.2647561819
 10
61.9955381596
 20
128.239798385
 10
61.1201375793
 20
130.1990945104
 10
60.1530939453
 20
132.1316837054
 10
59.0998152251
 20
134.0267663836
 10
57.9661888065
 20
135.87373464
 10
56.7585604244
 20
137.6622695887
 10
55.4836801602
 20
139.3823542853
 10
54.1486774165
 20
141.024385513
 10
52.7610187711
 20
142.5791737783
 10
51.3284645123
 20
144.0380170721
 10
49.8590251757
 20
145.3927685466
 10
48.3609207138
 20
146.6358479186
 10
46.8425264955
 20
147.760296978
 10
45.3123351109
 20
148.7598381401
 10
43.7789043459
 20
149.6288679767
 10
42.2508097671
 20
150.3625393414
 10
40.7365966479
 20
150.9567465364
 10
39.244732883
 20
151.4081646621
 10
37.7835622312
 20
151.7142644413
 10
36.3612559128
 20
151.8733401619
 10
34.9857679107
 20
151.8845050627
 10
33.6647905599
 20
151.747686552
 10
32.4057112891
 20
151.4636572642
 10
31.2155715443
 20
151.0340040192
 10
30.2342151039
 20
150.539439952
  0
LWPOLYLINE
  5
29D
330
1F
100
AcDbEntity
  8
0
  6
Continuous
 62
     7
370
    15
100
AcDbPolyline
 90
       21
 70
   128
 43
0.0
 10
75.812695582
 20
126.891523112
 10
76.1675904857
 20
124.9638940112
 10
76.4100059874
 20
123.0753969021
 10
76.5385854855
 20
121.2365792777
 10
76.5526098494
 20
119.4577362171
 10
76.4520026878
 20
117.7488039212
 10
76.2373250807
 20
116.1193505868
 10
75.9097782133
 20
114.5784836303
 10
75.4711954736
 20
113.1348177472
 10
74.9240240128
 20
111.7964338458
 10
74.2713300142
 20
110.5708090851
 10
73.5167618144
 20
109.4647986199
 10
72.6645367324
 20
108.4845945347
 10
71.7194252647
 20
107.6356680472
 10
70.6867089382
 20
106.922775588
 10
69.5721618711
 20
106.3499025243
 10
68.3820244312
 20
105.9202479487
 10
67.1229439668
 20
105.6362193499
 10
65.801966904
 20
105.4994037148
 10
64.4264781611
 20
105.5105660014
 10
63.7423215401
 20
105.5692475632
  0
LWPOLYLINE
  5
29E
330
1F
100
AcDbEntity
  8
0
  6
Continuous
 62
     7
370
    15
100
AcDbPolyline
 90
       35
 70
   128
 43
0.0
 10
37.0454125338
 20
151.8146609214
 10
37.1853710224
 20
152.1233311127
 10
37.838065021
 20
153.3489558734
 10
38.5926338793
 20
154.4549629166
 10
39.4448583028
 20
155.435167382
 10
40.3899714168
 20
156.2840898772
 10
41.4226877434
 20
156.9969823364
 10
42.5372325056
 20
157.5698597725
 10
43.7273722504
 20
157.9995130175
 10
44.9864515212
 20
158.2835423054
 10
46.307428872
 20
158.4203608161
 10
47.6829168741
 20
158.4091959153
 10
49.1052231925
 20
158.2501201946
 10
50.5663938442
 20
157.9440204155
 10
52.0582576092
 20
157.4926022898
 10
53.5724707284
 20
156.8983950947
 10
55.1005653072
 20
156.16472373
 10
56.6339960722
 20
155.2956938935
 10
58.1641874568
 20
154.2961527314
 10
59.682581675
 20
153.1717036719
 10
61.180686137
 20
151.9286242999
 10
62.6501254736
 20
150.5738728254
 10
64.0826797324
 20
149.1150295316
 10
65.4703383778
 20
147.5602412663
 10
66.8053411215
 20
145.9182100386
 10
68.0802213857
 20
144.198125342
 10
69.2878497678
 20
142.4095903934
 10
70.4214761863
 20
140.562622137
 10
71.4747549066
 20
138.6675394588
 10
72.4417985406
 20
136.7349502637
 10
73.3171991209
 20
134.7756541383
 10
74.0960597105
 20
132.8006119352
 10
74.7740260131
 20
130.8208666879
 10
75.3473074465
 20
128.8474888595
 10
75.812695582
 20
126.891523112
  0
LWPOLYLINE
  5
29F
330
1F
100
AcDbEntity
  8
0
  6
Continuous
 62
     7
370
    15
100
AcDbPolyline
 90
       44
 70
   128
 43
0.0
 10
42.2774287946
 20
157.4918392297
 10
43.258785235
 20
157.9864032968
 10
44.4489249798
 20
158.4160565419
 10
45.7080042506
 20
158.7000858297
 10
47.0289816015
 20
158.8369043404
 10
48.4044696035
 20
158.8257394396
 10
49.8267759219
 20
158.6666637189
 10
51.2879465737
 20
158.3605639398
 10
52.7798103386
 20
157.9091458141
 10
54.2940234578
 20
157.314938619
 10
55.8221180366
 20
156.5812672543
 10
57.3555488016
 20
155.7122374178
 10
58.8857401862
 20
154.7126962557
 10
60.4041344045
 20
153.5882471962
 10
61.9022388664
 20
152.3451678243
 10
63.371678203
 20
150.9904163497
 10
64.8042324618
 20
149.5315730559
 10
66.1918911072
 20
147.9767847906
 10
67.5268938509
 20
146.3347535629
 10
68.8017741152
 20
144.6146688663
 10
70.0094024972
 20
142.8261339177
 10
71.1430289158
 20
140.9791656613
 10
72.196307636
 20
139.0840829831
 10
73.16335127
 20
137.151493788
 10
74.0387518503
 20
135.1921976626
 10
74.8176124399
 20
133.2171554595
 10
75.4955787425
 20
131.2374102122
 10
76.068860176
 20
129.2640323838
 10
76.5342483114
 20
127.3080666363
 10
76.8891432151
 20
125.3804375355
 10
77.1315587168
 20
123.4919404265
 10
77.2601382149
 20
121.653122802
 10
77.2741625788
 20
119.8742797414
 10
77.1735554172
 20
118.1653474455
 10
76.9588778101
 20
116.5358941111
 10
76.6313309428
 20
114.9950271546
 10
76.192748203
 20
113.5513612715
 10
75.6455767422
 20
112.2129773701
 10
74.9928827436
 20
110.9873526094
 10
74.2383145438
 20
109.8813421442
 10
73.3860894619
 20
108.901138059
 10
72.4409779941
 20
108.0522115715
 10
71.4082616676
 20
107.3393191123
 10
71.275072358
 20
107.2610063136
  0
LWPOLYLINE
  5
2A0
330
1F
100
AcDbEntity
  8
0
  6
Continuous
 62
     7
370
    15
100
AcDbPolyline
 90
       26
 70
   128
 43
0.0
 10
30.9988985473
 20
134.8137833138
 10
31.5201240131
 20
135.0911483234
 10
32.3841357246
 20
135.3974396655
 10
33.3162893413
 20
135.5556959992
 10
34.3063714964
 20
135.5641722446
 10
35.3435356325
 20
135.4227907673
 10
36.4164172472
 20
135.1330870161
 10
37.5132626379
 20
134.6982447068
 10
38.622054026
 20
134.1230235897
 10
39.7306425824
 20
133.4137252412
 10
40.8268834292
 20
132.5781212129
 10
41.8987660318
 20
131.6253716743
 10
42.9345459074
 20
130.5659067929
 10
43.922875017
 20
129.4113392931
 10
44.8529255718
 20
128.17431998
 10
45.714505937
 20
126.8683978252
 10
46.4981791699
 20
125.5078785314
 10
47.1953565329
 20
124.1076792933
 10
47.7984015439
 20
122.6831348891
 10
48.3007076845
 20
121.2498493973
 10
48.6967682054
 20
119.8235281413
 10
48.9822472496
 20
118.4198027895
 10
49.1540154136
 20
117.054046566
 10
49.2101905772
 20
115.7412229225
 10
49.150158977
 20
114.4957212804
 10
48.9980747083
 20
113.4476355322
  0
LWPOLYLINE
  5
2A1
330
1F
100
AcDbEntity
  8
0
  6
Continuous
 62
     7
370
    15
100
AcDbPolyline
 90
       32
 70
   128
 43
0.0
 10
49.9213722185
 20
111.0991461837
 10
50.2918667245
 20
111.3352879459
 10
50.9920457333
 20
111.9260059339
 10
51.5983294663
 20
112.6499923169
 10
52.1040758433
 20
113.499315604
 10
52.503742554
 20
114.4646732931
 10
52.7929515943
 20
115.5354884555
 10
52.9685353652
 20
116.7000230494
 10
53.0285669654
 20
117.9455246915
 10
52.9723918018
 20
119.258348335
 10
52.8006236378
 20
120.6241045585
 10
52.5151445936
 20
122.0278299103
 10
52.1190840727
 20
123.4541511663
 10
51.6167779321
 20
124.8874366581
 10
51.0137329211
 20
126.3119810623
 10
50.3165555581
 20
127.7121803004
 10
49.5328823252
 20
129.0726995942
 10
48.67130196
 20
130.378621749
 10
47.7412514052
 20
131.6156410621
 10
46.7529222956
 20
132.7702085619
 10
45.71714242
 20
133.8296734433
 10
44.6452598174
 20
134.7824229819
 10
43.5490189705
 20
135.6180270102
 10
42.4404304141
 20
136.3273253587
 10
41.3316390261
 20
136.9025464759
 10
40.2347936353
 20
137.3373887851
 10
39.1619120207
 20
137.6270925363
 10
38.1247478846
 20
137.7684740136
 10
37.1346657295
 20
137.7599977682
 10
36.2025121128
 20
137.6017414345
 10
35.3385004012
 20
137.2954500924
 10
34.9225910196
 20
137.0806162314
  0
ARC
  5
2A2
330
1F
100
AcDbEntity
  8
0
  6
Continuous
 62
     7
370
    15
100
AcDbCircle
 10
30.5199605293
 20
117.2189936657
 30
0.0
 40
22.53050501585698
100
AcDbArc
 50
2.5254105012
 51
57.4692048679
  0
LINE
  5
2A3
330
1F
100
AcDbEntity
  8
0
  6
Continuous
 62
     7
370
    15
100
AcDbLine
 10
48.2909674819
 20
55.2161039802
 30
0.0
 11
49.7051812761
 21
56.0325122259
 31
0.0
  0
LINE
  5
2A4
330
1F
100
AcDbEntity
  8
0
  6
Continuous
 62
     7
370
    15
100
AcDbLine
 10
48.2909674819
 20
55.2161039802
 30
0.0
 11
48.998074379
 21
56.4408489537
 31
0.0
  0
LINE
  5
2A5
330
1F
100
AcDbEntity
  8
0
  6
Continuous
 62
     7
370
    15
100
AcDbLine
 10
48.998074379
 20
56.4408489537
 30
0.0
 11
49.7051812761
 21
56.0325122259
 31
0.0
  0
LINE
  5
2A6
330
1F
100
AcDbEntity
  8
0
  6
Continuous
 62
     7
370
    15
100
AcDbLine
 10
70.2112766819
 20
67.8704291265
 30
0.0
 11
70.2112766819
 21
80.9350827372
 31
0.0
  0
LINE
  5
2A7
330
1F
100
AcDbEntity
  8
0
  6
Continuous
 62
     7
370
    15
100
AcDbLine
 10
70.2112766819
 20
67.8704291265
 30
0.0
 11
48.998074379
 21
55.6243081031
 31
0.0
  0
LINE
  5
2A8
330
1F
100
AcDbEntity
  8
0
  6
Continuous
 62
     7
370
    15
100
AcDbLine
 10
48.998074379
 20
55.6243081031
 30
0.0
 11
48.998074379
 21
68.6889617138
 31
0.0
  0
LINE
  5
2A9
330
1F
100
AcDbEntity
  8
0
  6
Continuous
 62
     7
370
    15
100
AcDbLine
 10
70.2112766819
 20
80.9350827372
 30
0.0
 11
48.998074379
 21
68.6889617138
 31
0.0
  0
LINE
  5
2AA
330
1F
100
AcDbEntity
  8
0
  6
Continuous
 62
     7
370
    15
100
AcDbLine
 10
64.1461515691
 20
84.4364049371
 30
0.0
 11
70.2112766819
 21
80.9350827372
 31
0.0
  0
LINE
  5
2AB
330
1F
100
AcDbEntity
  8
0
  6
Continuous
 62
     7
370
    15
100
AcDbLine
 10
48.9980756961
 20
75.6916068739
 30
0.0
 11
64.1461515691
 21
84.4364049371
 31
0.0
  0
LINE
  5
2AC
330
1F
100
AcDbEntity
  8
0
  6
Continuous
 62
     7
370
    15
100
AcDbLine
 10
48.9980737205
 20
93.1812041408
 30
0.0
 11
53.8613728869
 21
90.3736812919
 31
0.0
  0
LWPOLYLINE
  5
2AD
330
1F
100
AcDbEntity
  8
0
  6
Continuous
 62
     7
370
    15
100
AcDbPolyline
 90
       24
 70
   128
 43
0.0
 10
30.8920826281
 20
134.7538532636
 10
31.294271235
 20
134.9623660102
 10
32.1570689197
 20
135.2710920505
 10
33.0881721579
 20
135.4318224516
 10
34.0773794366
 20
135.4427992071
 10
35.1138527596
 20
135.3038971542
 10
36.1862365146
 20
135.0166344422
 10
37.282781609
 20
134.5841677908
 10
38.3914728983
 20
134.0112310948
 10
39.5001648462
 20
133.304099695
 10
40.5967099406
 20
132.4705223288
 10
41.669093037
 20
131.5196374922
 10
42.7055670185
 20
130.4618525385
 10
43.6947746265
 20
129.3087611796
 10
44.6258775354
 20
128.0730020523
 10
45.4886748909
 20
126.7681111993
 10
46.2737139451
 20
125.4083851964
 10
46.9723941067
 20
124.008717663
 10
47.5770591372
 20
122.5844486983
 10
48.081085396
 20
121.1511800981
 10
48.4789503288
 20
119.7246141424
 10
48.7662956882
 20
118.3203893416
 10
48.9399709971
 20
116.9538789178
 10
48.998074379
 20
115.640057728
  0
LINE
  5
2AE
330
1F
100
AcDbEntity
  8
0
  6
Continuous
 62
     7
370
    15
100
AcDbLine
 10
48.998074379
 20
115.640057728
 30
0.0
 11
44.755433655
 21
113.1908333712
 31
0.0
  0
LWPOLYLINE
  5
2AF
330
1F
100
AcDbEntity
  8
0
  6
Continuous
 62
     7
370
    15
100
AcDbPolyline
 90
       24
 70
   128
 43
0.0
 10
26.6494419041
 20
132.3046289068
 10
27.051630511
 20
132.5131416535
 10
27.9144281957
 20
132.8218676937
 10
28.8455314339
 20
132.9825980949
 10
29.8347387126
 20
132.9935748503
 10
30.8712120356
 20
132.8546727974
 10
31.9435957906
 20
132.5674100854
 10
33.040140885
 20
132.134943434
 10
34.1488321743
 20
131.562006738
 10
35.2575241222
 20
130.8548753382
 10
36.3540692166
 20
130.0212979721
 10
37.426452313
 20
129.0704131355
 10
38.4629262945
 20
128.0126281817
 10
39.4521339025
 20
126.8595368228
 10
40.3832368114
 20
125.6237776955
 10
41.2460341669
 20
124.3188868425
 10
42.0310732211
 20
122.9591608397
 10
42.7297533827
 20
121.5594933062
 10
43.3344184132
 20
120.1352243415
 10
43.838444672
 20
118.7019557413
 10
44.2363096048
 20
117.2753897856
 10
44.5236549642
 20
115.8711649848
 10
44.6973302731
 20
114.5046545611
 10
44.755433655
 20
113.1908333712
  0
LINE
  5
2B0
330
1F
100
AcDbEntity
  8
0
  6
Continuous
 62
     7
370
    15
100
AcDbLine
 10
44.755433655
 20
113.1908333712
 30
0.0
 11
44.755433655
 21
53.1750837463
 31
0.0
  0
LINE
  5
2B1
330
1F
100
AcDbEntity
  8
0
  6
Continuous
 62
     7
370
    15
100
AcDbLine
 10
44.755433655
 20
53.1750837463
 30
0.0
 11
38.0257225469
 21
57.0600632749
 31
0.0
  0
LINE
  5
2B2
330
1F
100
AcDbEntity
  8
0
  6
Continuous
 62
     7
370
    15
100
AcDbLine
 10
26.4221558039
 20
63.758659772
 30
0.0
 11
23.5422306936
 21
65.4212051499
 31
0.0
  0
LINE
  5
2B3
330
1F
100
AcDbEntity
  8
0
  6
Continuous
 62
     7
370
    15
100
AcDbLine
 10
23.5422306936
 20
65.4212051499
 30
0.0
 11
23.5422306936
 21
68.7465242004
 31
0.0
  0
LINE
  5
2B4
330
1F
100
AcDbEntity
  8
0
  6
Continuous
 62
     7
370
    15
100
AcDbLine
 10
23.5422306936
 20
82.1469324439
 30
0.0
 11
23.5422306936
 21
116.514163822
 31
0.0
  0
LINE
  5
2B5
330
1F
100
AcDbEntity
  8
0
  6
Continuous
 62
     7
370
    15
100
AcDbLine
 10
48.2909674819
 20
55.2161039802
 30
0.0
 11
44.755433655
 21
53.1750837463
 31
0.0
  0
LINE
  5
2B6
330
1F
100
AcDbEntity
  8
0
  6
Continuous
 62
     7
370
    15
100
AcDbLine
 10
48.998074379
 20
115.640057728
 30
0.0
 11
48.998074379
 21
56.4408489537
 31
0.0
  0
ARC
  5
2B7
330
1F
100
AcDbEntity
  8
0
  6
Continuous
 62
     8
370
    15
100
AcDbCircle
 10
42.1071137551
 20
76.1707772941
 30
0.0
 40
9.28626784763121
100
AcDbArc
 50
5.4346881688
 51
42.0928682144
  0
ARC
  5
2B8
330
1F
100
AcDbEntity
  8
0
  6
Continuous
 62
     8
370
    15
100
AcDbCircle
 10
42.1260720319
 20
76.1664699668
 30
0.0
 40
10.40020346771458
100
AcDbArc
 50
8.2882069796
 51
48.6423996033
  0
ENDSEC
  0
SECTION
  2
OBJECTS
  0
DICTIONARY
  5
C
330
0
100
AcDbDictionary
281
     1
  3
ACAD_GROUP
350
D
  3
ACAD_LAYOUT
350
1A
  3
ACAD_MLINESTYLE
350
17
  3
ACAD_PLOTSETTINGS
350
19
  3
ACAD_PLOTSTYLENAME
350
E
  3
ACAD_SCALELIST
350
47
  0
DICTIONARY
  5
D
102
{ACAD_REACTORS
330
C
102
}
330
C
100
AcDbDictionary
281
     1
  0
DICTIONARY
  5
1A
102
{ACAD_REACTORS
330
C
102
}
330
C
100
AcDbDictionary
281
     1
  3
Layout1
350
1E
  3
Layout2
350
26
  3
Model
350
22
  0
DICTIONARY
  5
17
102
{ACAD_REACTORS
330
C
102
}
330
C
100
AcDbDictionary
281
     1
  3
Standard
350
18
  0
DICTIONARY
  5
19
102
{ACAD_REACTORS
330
C
102
}
330
C
100
AcDbDictionary
281
     1
  0
ACDBDICTIONARYWDFLT
  5
E
102
{ACAD_REACTORS
330
C
102
}
330
C
100
AcDbDictionary
281
     1
  3
Normal
350
F
100
AcDbDictionaryWithDefault
340
F
  0
DICTIONARY
  5
47
102
{ACAD_REACTORS
330
C
102
}
330
C
100
AcDbDictionary
281
     1
  3
A0
350
48
  3
A1
350
49
  3
A2
350
4A
  3
A3
350
4B
  3
A4
350
4C
  3
A5
350
4D
  3
A6
350
4E
  3
A7
350
4F
  3
A8
350
50
  3
A9
350
51
  3
B0
350
52
  3
B1
350
53
  3
B2
350
54
  3
B3
350
55
  3
B4
350
56
  3
B5
350
57
  3
B6
350
58
  3
B7
350
59
  3
B8
350
5A
  3
B9
350
5B
  3
C0
350
5C
  3
C1
350
5D
  3
C2
350
5E
  3
C3
350
5F
  3
C4
350
60
  3
C5
350
61
  3
C6
350
62
  3
C7
350
63
  3
C8
350
64
  3
C9
350
65
  3
D0
350
66
  3
D1
350
67
  3
D2
350
68
  0
LAYOUT
  5
1E
102
{ACAD_REACTORS
330
1A
102
}
330
1A
100
AcDbPlotSettings
  1

  2
none_device
  4

  6

 40
0.0
 41
0.0
 42
0.0
 43
0.0
 44
0.0
 45
0.0
 46
0.0
 47
0.0
 48
0.0
 49
0.0
140
0.0
141
0.0
142
1.0
143
1.0
 70
   688
 72
     1
 73
     0
 74
     5
  7

 75
    16
147
1.0
148
0.0
149
0.0
100
AcDbLayout
  1
Layout1
 70
     1
 71
     1
 10
0.0
 20
0.0
 11
420.0
 21
297.0
 12
0.0
 22
0.0
 32
0.0
 14
1.0000000000E+20
 24
1.0000000000E+20
 34
1.0000000000E+20
 15
-1.0000000000E+20
 25
-1.0000000000E+20
 35
-1.0000000000E+20
146
0.0
 13
0.0
 23
0.0
 33
0.0
 16
1.0
 26
0.0
 36
0.0
 17
0.0
 27
1.0
 37
0.0
 76
     0
330
1B
  0
LAYOUT
  5
26
102
{ACAD_REACTORS
330
1A
102
}
330
1A
100
AcDbPlotSettings
  1

  2
none_device
  4

  6

 40
0.0
 41
0.0
 42
0.0
 43
0.0
 44
0.0
 45
0.0
 46
0.0
 47
0.0
 48
0.0
 49
0.0
140
0.0
141
0.0
142
1.0
143
1.0
 70
   688
 72
     1
 73
     0
 74
     5
  7

 75
    16
147
1.0
148
0.0
149
0.0
100
AcDbLayout
  1
Layout2
 70
     1
 71
     2
 10
0.0
 20
0.0
 11
0.0
 21
0.0
 12
0.0
 22
0.0
 32
0.0
 14
0.0
 24
0.0
 34
0.0
 15
0.0
 25
0.0
 35
0.0
146
0.0
 13
0.0
 23
0.0
 33
0.0
 16
1.0
 26
0.0
 36
0.0
 17
0.0
 27
1.0
 37
0.0
 76
     0
330
23
  0
LAYOUT
  5
22
102
{ACAD_REACTORS
330
1A
102
}
330
1A
100
AcDbPlotSettings
  1

  2
none_device
  4
Letter_(8.50_x_11.00_Inches)
  6

 40
6.35
 41
6.35
 42
6.35000508
 43
6.35000508
 44
215.9
 45
279.4
 46
0.0
 47
0.0
 48
0.0
 49
0.0
140
0.0
141
0.0
142
1.0
143
1.0
 70
  1712
 72
     1
 73
     0
 74
     0
  7

 75
     0
147
1.0
148
0.0
149
0.0
100
AcDbLayout
  1
Model
 70
     1
 71
     0
 10
0.0
 20
0.0
 11
431.8
 21
279.4
 12
0.0
 22
0.0
 32
0.0
 14
0.0
 24
0.0
 34
0.0
 15
431.8
 25
279.4
 35
0.0
146
0.0
 13
0.0
 23
0.0
 33
0.0
 16
1.0
 26
0.0
 36
0.0
 17
0.0
 27
1.0
 37
0.0
 76
     0
330
1F
331
29
  0
MLINESTYLE
  5
18
102
{ACAD_REACTORS
330
17
102
}
330
17
100
AcDbMlineStyle
  2
Standard
 70
     0
  3

 62
   256
 51
90.0
 52
90.0
 71
     2
 49
0.5
 62
   256
  6
BYLAYER
 49
-0.5
 62
   256
  6
BYLAYER
  0
ACDBPLACEHOLDER
  5
F
102
{ACAD_REACTORS
330
E
102
}
330
E
  0
SCALE
  5
48
102
{ACAD_REACTORS
330
47
102
}
330
47
100
AcDbScale
 70
     0
300
1:1
140
1.0
141
1.0
290
     1
  0
SCALE
  5
49
102
{ACAD_REACTORS
330
47
102
}
330
47
100
AcDbScale
 70
     0
300
1:2
140
1.0
141
2.0
290
     0
  0
SCALE
  5
4A
102
{ACAD_REACTORS
330
47
102
}
330
47
100
AcDbScale
 70
     0
300
1:4
140
1.0
141
4.0
290
     0
  0
SCALE
  5
4B
102
{ACAD_REACTORS
330
47
102
}
330
47
100
AcDbScale
 70
     0
300
1:5
140
1.0
141
5.0
290
     0
  0
SCALE
  5
4C
102
{ACAD_REACTORS
330
47
102
}
330
47
100
AcDbScale
 70
     0
300
1:8
140
1.0
141
8.0
290
     0
  0
SCALE
  5
4D
102
{ACAD_REACTORS
330
47
102
}
330
47
100
AcDbScale
 70
     0
300
1:10
140
1.0
141
10.0
290
     0
  0
SCALE
  5
4E
102
{ACAD_REACTORS
330
47
102
}
330
47
100
AcDbScale
 70
     0
300
1:16
140
1.0
141
16.0
290
     0
  0
SCALE
  5
4F
102
{ACAD_REACTORS
330
47
102
}
330
47
100
AcDbScale
 70
     0
300
1:20
140
1.0
141
20.0
290
     0
  0
SCALE
  5
50
102
{ACAD_REACTORS
330
47
102
}
330
47
100
AcDbScale
 70
     0
300
1:30
140
1.0
141
30.0
290
     0
  0
SCALE
  5
51
102
{ACAD_REACTORS
330
47
102
}
330
47
100
AcDbScale
 70
     0
300
1:40
140
1.0
141
40.0
290
     0
  0
SCALE
  5
52
102
{ACAD_REACTORS
330
47
102
}
330
47
100
AcDbScale
 70
     0
300
1:50
140
1.0
141
50.0
290
     0
  0
SCALE
  5
53
102
{ACAD_REACTORS
330
47
102
}
330
47
100
AcDbScale
 70
     0
300
1:100
140
1.0
141
100.0
290
     0
  0
SCALE
  5
54
102
{ACAD_REACTORS
330
47
102
}
330
47
100
AcDbScale
 70
     0
300
2:1
140
2.0
141
1.0
290
     0
  0
SCALE
  5
55
102
{ACAD_REACTORS
330
47
102
}
330
47
100
AcDbScale
 70
     0
300
4:1
140
4.0
141
1.0
290
     0
  0
SCALE
  5
56
102
{ACAD_REACTORS
330
47
102
}
330
47
100
AcDbScale
 70
     0
300
8:1
140
8.0
141
1.0
290
     0
  0
SCALE
  5
57
102
{ACAD_REACTORS
330
47
102
}
330
47
100
AcDbScale
 70
     0
300
10:1
140
10.0
141
1.0
290
     0
  0
SCALE
  5
58
102
{ACAD_REACTORS
330
47
102
}
330
47
100
AcDbScale
 70
     0
300
100:1
140
100.0
141
1.0
290
     0
  0
SCALE
  5
59
102
{ACAD_REACTORS
330
47
102
}
330
47
100
AcDbScale
 70
     0
300
1/128" = 1'-0"
140
0.0078125
141
12.0
290
     0
  0
SCALE
  5
5A
102
{ACAD_REACTORS
330
47
102
}
330
47
100
AcDbScale
 70
     0
300
1/64" = 1'-0"
140
0.015625
141
12.0
290
     0
  0
SCALE
  5
5B
102
{ACAD_REACTORS
330
47
102
}
330
47
100
AcDbScale
 70
     0
300
1/32" = 1'-0"
140
0.03125
141
12.0
290
     0
  0
SCALE
  5
5C
102
{ACAD_REACTORS
330
47
102
}
330
47
100
AcDbScale
 70
     0
300
1/16" = 1'-0"
140
0.0625
141
12.0
290
     0
  0
SCALE
  5
5D
102
{ACAD_REACTORS
330
47
102
}
330
47
100
AcDbScale
 70
     0
300
3/32" = 1'-0"
140
0.09375
141
12.0
290
     0
  0
SCALE
  5
5E
102
{ACAD_REACTORS
330
47
102
}
330
47
100
AcDbScale
 70
     0
300
1/8" = 1'-0"
140
0.125
141
12.0
290
     0
  0
SCALE
  5
5F
102
{ACAD_REACTORS
330
47
102
}
330
47
100
AcDbScale
 70
     0
300
3/16" = 1'-0"
140
0.1875
141
12.0
290
     0
  0
SCALE
  5
60
102
{ACAD_REACTORS
330
47
102
}
330
47
100
AcDbScale
 70
     0
300
1/4" = 1'-0"
140
0.25
141
12.0
290
     0
  0
SCALE
  5
61
102
{ACAD_REACTORS
330
47
102
}
330
47
100
AcDbScale
 70
     0
300
3/8" = 1'-0"
140
0.375
141
12.0
290
     0
  0
SCALE
  5
62
102
{ACAD_REACTORS
330
47
102
}
330
47
100
AcDbScale
 70
     0
300
1/2" = 1'-0"
140
0.5
141
12.0
290
     0
  0
SCALE
  5
63
102
{ACAD_REACTORS
330
47
102
}
330
47
100
AcDbScale
 70
     0
300
3/4" = 1'-0"
140
0.75
141
12.0
290
     0
  0
SCALE
  5
64
102
{ACAD_REACTORS
330
47
102
}
330
47
100
AcDbScale
 70
     0
300
1" = 1'-0"
140
1.0
141
12.0
290
     0
  0
SCALE
  5
65
102
{ACAD_REACTORS
330
47
102
}
330
47
100
AcDbScale
 70
     0
300
1-1/2" = 1'-0"
140
1.5
141
12.0
290
     0
  0
SCALE
  5
66
102
{ACAD_REACTORS
330
47
102
}
330
47
100
AcDbScale
 70
     0
300
3" = 1'-0"
140
3.0
141
12.0
290
     0
  0
SCALE
  5
67
102
{ACAD_REACTORS
330
47
102
}
330
47
100
AcDbScale
 70
     0
300
6" = 1'-0"
140
6.0
141
12.0
290
     0
  0
SCALE
  5
68
102
{ACAD_REACTORS
330
47
102
}
330
47
100
AcDbScale
 70
     0
300
1'-0" = 1'-0"
140
12.0
141
12.0
290
     0
  0
ENDSEC
  0
EOF
